  0
SECTION
  2
HEADER
  9
$ACADVER
  1
AC1014
  9
$ACADMAINTVER
 70
     9
  9
$DWGCODEPAGE
  3
ANSI_932
  9
$INSBASE
 10
0.0
 20
0.0
 30
0.0
  9
$EXTMIN
 10
-306.3375084291458
 20
-106.1499999999999
 30
0.0
  9
$EXTMAX
 10
304.5874241000394
 20
107.1499999999999
 30
0.0
  9
$LIMMIN
 10
-148.5
 20
-105.0
  9
$LIMMAX
 10
148.5
 20
105.0
  9
$ORTHOMODE
 70
     0
  9
$REGENMODE
 70
     1
  9
$FILLMODE
 70
     1
  9
$QTEXTMODE
 70
     0
  9
$MIRRTEXT
 70
     1
  9
$DRAGMODE
 70
     2
  9
$LTSCALE
 40
1.0
  9
$OSMODE
 70
    37
  9
$ATTMODE
 70
     1
  9
$TEXTSIZE
 40
0.2
  9
$TRACEWID
 40
0.05
  9
$TEXTSTYLE
  7
STANDARD
  9
$CLAYER
  8
0
  9
$CELTYPE
  6
BYLAYER
  9
$CECOLOR
 62
   256
  9
$CELTSCALE
 40
1.0
  9
$DELOBJ
 70
     1
  9
$DISPSILH
 70
     0
  9
$DIMSCALE
 40
1.0
  9
$DIMASZ
 40
2.5
  9
$DIMEXO
 40
0.0625
  9
$DIMDLI
 40
0.38
  9
$DIMRND
 40
0.0
  9
$DIMDLE
 40
0.0
  9
$DIMEXE
 40
0.18
  9
$DIMTP
 40
0.0
  9
$DIMTM
 40
0.0
  9
$DIMTXT
 40
0.18
  9
$DIMCEN
 40
0.09
  9
$DIMTSZ
 40
0.0
  9
$DIMTOL
 70
     0
  9
$DIMLIM
 70
     0
  9
$DIMTIH
 70
     1
  9
$DIMTOH
 70
     1
  9
$DIMSE1
 70
     0
  9
$DIMSE2
 70
     0
  9
$DIMTAD
 70
     3
  9
$DIMZIN
 70
     0
  9
$DIMBLK
  1

  9
$DIMASO
 70
     1
  9
$DIMSHO
 70
     1
  9
$DIMPOST
  1

  9
$DIMAPOST
  1

  9
$DIMALT
 70
     0
  9
$DIMALTD
 70
     2
  9
$DIMALTF
 40
25.4
  9
$DIMLFAC
 40
1.0
  9
$DIMTOFL
 70
     0
  9
$DIMTVP
 40
0.0
  9
$DIMTIX
 70
     0
  9
$DIMSOXD
 70
     0
  9
$DIMSAH
 70
     0
  9
$DIMBLK1
  1

  9
$DIMBLK2
  1

  9
$DIMSTYLE
  2
STANDARD
  9
$DIMCLRD
 70
     0
  9
$DIMCLRE
 70
     0
  9
$DIMCLRT
 70
     0
  9
$DIMTFAC
 40
1.0
  9
$DIMGAP
 40
0.09
  9
$DIMJUST
 70
     0
  9
$DIMSD1
 70
     0
  9
$DIMSD2
 70
     0
  9
$DIMTOLJ
 70
     1
  9
$DIMTZIN
 70
     0
  9
$DIMALTZ
 70
     0
  9
$DIMALTTZ
 70
     0
  9
$DIMFIT
 70
     3
  9
$DIMUPT
 70
     0
  9
$DIMUNIT
 70
     2
  9
$DIMDEC
 70
     4
  9
$DIMTDEC
 70
     4
  9
$DIMALTU
 70
     2
  9
$DIMALTTD
 70
     2
  9
$DIMTXSTY
  7
STANDARD
  9
$DIMAUNIT
 70
     0
  9
$LUNITS
 70
     2
  9
$LUPREC
 70
     4
  9
$SKETCHINC
 40
0.1
  9
$FILLETRAD
 40
0.5
  9
$AUNITS
 70
     0
  9
$AUPREC
 70
     0
  9
$MENU
  1
.
  9
$ELEVATION
 40
0.0
  9
$PELEVATION
 40
0.0
  9
$THICKNESS
 40
0.0
  9
$LIMCHECK
 70
     0
  9
$CHAMFERA
 40
0.5
  9
$CHAMFERB
 40
0.5
  9
$CHAMFERC
 40
1.0
  9
$CHAMFERD
 40
0.0
  9
$SKPOLY
 70
     0
  9
$TDCREATE
 40
2457961.462211215
  9
$TDUPDATE
 40
2457961.462211227
  9
$TDINDWG
 40
0.0000000116
  9
$TDUSRTIMER
 40
0.0000000116
  9
$USRTIMER
 70
     1
  9
$ANGBASE
 50
0.0
  9
$ANGDIR
 70
     0
  9
$PDMODE
 70
     0
  9
$PDSIZE
 40
1.0
  9
$PLINEWID
 40
0.0
  9
$COORDS
 70
     1
  9
$SPLFRAME
 70
     0
  9
$SPLINETYPE
 70
     6
  9
$SPLINESEGS
 70
     8
  9
$ATTDIA
 70
     0
  9
$ATTREQ
 70
     1
  9
$HANDLING
 70
     1
  9
$HANDSEED
  5
1F5
  9
$SURFTAB1
 70
     6
  9
$SURFTAB2
 70
     6
  9
$SURFTYPE
 70
     6
  9
$SURFU
 70
     6
  9
$SURFV
 70
     6
  9
$UCSNAME
  2

  9
$UCSORG
 10
0.0
 20
0.0
 30
0.0
  9
$UCSXDIR
 10
1.0
 20
0.0
 30
0.0
  9
$UCSYDIR
 10
0.0
 20
1.0
 30
0.0
  9
$PUCSNAME
  2

  9
$PUCSORG
 10
0.0
 20
0.0
 30
0.0
  9
$PUCSXDIR
 10
1.0
 20
0.0
 30
0.0
  9
$PUCSYDIR
 10
0.0
 20
1.0
 30
0.0
  9
$USERI1
 70
     0
  9
$USERI2
 70
     0
  9
$USERI3
 70
     0
  9
$USERI4
 70
     0
  9
$USERI5
 70
     0
  9
$USERR1
 40
0.0
  9
$USERR2
 40
0.0
  9
$USERR3
 40
0.0
  9
$USERR4
 40
0.0
  9
$USERR5
 40
0.0
  9
$WORLDVIEW
 70
     1
  9
$SHADEDGE
 70
     3
  9
$SHADEDIF
 70
    70
  9
$TILEMODE
 70
     1
  9
$MAXACTVP
 70
    64
  9
$PINSBASE
 10
0.0
 20
0.0
 30
0.0
  9
$PLIMCHECK
 70
     0
  9
$PEXTMIN
 10
1.000000000000000E+20
 20
1.000000000000000E+20
 30
1.000000000000000E+20
  9
$PEXTMAX
 10
-1.000000000000000E+20
 20
-1.000000000000000E+20
 30
-1.000000000000000E+20
  9
$PLIMMIN
 10
0.0
 20
0.0
  9
$PLIMMAX
 10
12.0
 20
9.0
  9
$UNITMODE
 70
     0
  9
$VISRETAIN
 70
     0
  9
$PLINEGEN
 70
     1
  9
$PSLTSCALE
 70
     0
  9
$TREEDEPTH
 70
  3020
  9
$PICKSTYLE
 70
     1
  9
$CMLSTYLE
  2
STANDARD
  9
$CMLJUST
 70
     0
  9
$CMLSCALE
 40
1.0
  9
$PROXYGRAPHICS
 70
     0
  9
$MEASUREMENT
 70
     1
  0
ENDSEC
  0
SECTION
  2
CLASSES
  0
CLASS
  1
ACDBDICTIONARYWDFLT
  2
AcDbDictionaryWithDefault
  3
ObjectDBX Classes
 90
        0
280
     0
281
     0
  0
CLASS
  1
XRECORD
  2
AcDbXrecord
  3
AutoCAD 2000
 90
        0
280
     0
281
     0
  0
CLASS
  1
LWPOLYLINE
  2
AcDbPolyline
  3
AutoCAD 2000
 90
        0
280
     0
281
     1
  0
CLASS
  1
HATCH
  2
AcDbHatch
  3
AutoCAD 2000
 90
        0
280
     0
281
     1
  0
CLASS
  1
ACDBPLACEHOLDER
  2
AcDbPlaceHolder
  3
ObjectDBX Classes
 90
        0
280
     0
281
     0
  0
CLASS
  1
LAYOUT
  2
AcDbLayout
  3
ObjectDBX Classes
 90
        0
280
     0
281
     0
  0
ENDSEC
  0
SECTION
  2
TABLES
  0
TABLE
  2
VPORT
  5
8
330
0
100
AcDbSymbolTable
 70
     1
  0
VPORT
  5
29
330
8
100
AcDbSymbolTableRecord
100
AcDbViewportTableRecord
  2
*ACTIVE
 70
     0
 10
0.0
 20
0.0
 11
1.0
 21
1.0
 12
0.0
 22
0.0
 13
0.0
 23
0.0
 14
0.5
 24
0.5
 15
0.5
 25
0.5
 16
0.0
 26
0.0
 36
1.0
 17
0.1457731156180948
 27
-0.5
 37
0.0
 40
72.52199999999991
 41
2.835443229480347
 42
50.0
 43
0.0
 44
0.0
 50
0.0
 51
0.0
 71
     0
 72
  1000
 73
     1
 74
     1
 75
     0
 76
     0
 77
     0
 78
     0
  0
ENDTAB
  0
TABLE
  2
LTYPE
  5
5
330
0
100
AcDbSymbolTable
 70
    28
  0
LTYPE
  5
14
330
5
100
AcDbSymbolTableRecord
100
AcDbLinetypeTableRecord
  2
BYBLOCK
 70
     0
  3

 72
    65
 73
     0
 40
0.0
  0
LTYPE
  5
15
330
5
100
AcDbSymbolTableRecord
100
AcDbLinetypeTableRecord
  2
BYLAYER
 70
     0
  3

 72
    65
 73
     0
 40
0.0
  0
LTYPE
  5
16
330
5
100
AcDbSymbolTableRecord
100
AcDbLinetypeTableRecord
  2
CONTINUOUS
 70
     0
  3
Solid line
 72
    65
 73
     0
 40
0.0
  0
LTYPE
  5
2B
330
5
100
AcDbSymbolTableRecord
100
AcDbLinetypeTableRecord
  2
HIDDENX2
 70
     0
  3
CADPAC LINETYPE
 72
    65
 73
     2
 40
4.525862068965466
 49
3.3943965517241
 74
     0
 49
-1.131465517241367
 74
     0
  0
LTYPE
  5
2C
330
5
100
AcDbSymbolTableRecord
100
AcDbLinetypeTableRecord
  2
HIDDEN
 70
     0
  3
CADPAC LINETYPE
 72
    65
 73
     2
 40
3.3943965517241
 49
2.262931034482733
 74
     0
 49
-1.131465517241367
 74
     0
  0
LTYPE
  5
2D
330
5
100
AcDbSymbolTableRecord
100
AcDbLinetypeTableRecord
  2
HIDDEN2
 70
     0
  3
CADPAC LINETYPE
 72
    65
 73
     2
 40
2.828663793103416
 49
1.69719827586205
 74
     0
 49
-1.131465517241367
 74
     0
  0
LTYPE
  5
2E
330
5
100
AcDbSymbolTableRecord
100
AcDbLinetypeTableRecord
  2
DASHED
 70
     0
  3
CADPAC LINETYPE
 72
    65
 73
     2
 40
3.168103448275815
 49
2.262931034482733
 74
     0
 49
-0.9051724137930819
 74
     0
  0
LTYPE
  5
2F
330
5
100
AcDbSymbolTableRecord
100
AcDbLinetypeTableRecord
  2
DASHED2
 70
     0
  3
CADPAC LINETYPE
 72
    65
 73
     2
 40
2.03663793103442
 49
1.357758620689623
 74
     0
 49
-0.6788793103447972
 74
     0
  0
LTYPE
  5
30
330
5
100
AcDbSymbolTableRecord
100
AcDbLinetypeTableRecord
  2
DASHEDX2
 70
     0
  3
CADPAC LINETYPE
 72
    65
 73
     2
 40
5.431034482758548
 49
4.525862068965466
 74
     0
 49
-0.9051724137930819
 74
     0
  0
LTYPE
  5
31
330
5
100
AcDbSymbolTableRecord
100
AcDbLinetypeTableRecord
  2
DOTX2
 70
     0
  3
CADPAC LINETYPE
 72
    65
 73
     2
 40
1.980064655172384
 49
0.0
 74
     0
 49
-1.980064655172384
 74
     0
  0
LTYPE
  5
32
330
5
100
AcDbSymbolTableRecord
100
AcDbLinetypeTableRecord
  2
DOT
 70
     0
  3
CADPAC LINETYPE
 72
    65
 73
     2
 40
1.584051724137908
 49
0.0
 74
     0
 49
-1.584051724137908
 74
     0
  0
LTYPE
  5
33
330
5
100
AcDbSymbolTableRecord
100
AcDbLinetypeTableRecord
  2
DOT2
 70
     0
  3
CADPAC LINETYPE
 72
    65
 73
     2
 40
1.188038793103431
 49
0.0
 74
     0
 49
-1.188038793103431
 74
     0
  0
LTYPE
  5
34
330
5
100
AcDbSymbolTableRecord
100
AcDbLinetypeTableRecord
  2
CENTERX2
 70
     0
  3
CADPAC LINETYPE
 72
    65
 73
     4
 40
6.788793103448199
 49
2.828663793103416
 74
     0
 49
-1.414331896551708
 74
     0
 49
1.131465517241367
 74
     0
 49
-1.414331896551708
 74
     0
  0
LTYPE
  5
35
330
5
100
AcDbSymbolTableRecord
100
AcDbLinetypeTableRecord
  2
CENTER
 70
     0
  3
CADPAC LINETYPE
 72
    65
 73
     4
 40
5.204741379310287
 49
2.262931034482733
 74
     0
 49
-1.131465517241367
 74
     0
 49
0.67887931034482
 74
     0
 49
-1.131465517241367
 74
     0
  0
LTYPE
  5
36
330
5
100
AcDbSymbolTableRecord
100
AcDbLinetypeTableRecord
  2
CENTER2
 70
     0
  3
CADPAC LINETYPE
 72
    65
 73
     4
 40
3.620689655172373
 49
1.69719827586205
 74
     0
 49
-0.8485991379310249
 74
     0
 49
0.2262931034482733
 74
     0
 49
-0.8485991379310249
 74
     0
  0
LTYPE
  5
37
330
5
100
AcDbSymbolTableRecord
100
AcDbLinetypeTableRecord
  2
DASHDOTX2
 70
     0
  3
CADPAC LINETYPE
 72
    65
 73
     4
 40
10.86206896551718
 49
5.431034482758605
 74
     0
 49
-1.810344827586192
 74
     0
 49
1.810344827586192
 74
     0
 49
-1.810344827586192
 74
     0
  0
LTYPE
  5
38
330
5
100
AcDbSymbolTableRecord
100
AcDbLinetypeTableRecord
  2
DASHDOT
 70
     0
  3
CADPAC LINETYPE
 72
    65
 73
     4
 40
5.43103448275852
 49
2.715517241379274
 74
     0
 49
-0.9051724137930819
 74
     0
 49
0.9051724137930819
 74
     0
 49
-0.9051724137930819
 74
     0
  0
LTYPE
  5
39
330
5
100
AcDbSymbolTableRecord
100
AcDbLinetypeTableRecord
  2
DASHDOT2
 70
     0
  3
CADPAC LINETYPE
 72
    65
 73
     4
 40
3.484913793103387
 49
2.036637931034456
 74
     0
 49
-0.6788793103448114
 74
     0
 49
0.0905172413793082
 74
     0
 49
-0.6788793103448114
 74
     0
  0
LTYPE
  5
3A
330
5
100
AcDbSymbolTableRecord
100
AcDbLinetypeTableRecord
  2
DIVIDEX2
 70
     0
  3
CADPAC LINETYPE
 72
    65
 73
     6
 40
14.48275862068957
 49
5.431034482758605
 74
     0
 49
-1.810344827586192
 74
     0
 49
1.810344827586192
 74
     0
 49
-1.810344827586192
 74
     0
 49
1.810344827586192
 74
     0
 49
-1.810344827586192
 74
     0
  0
LTYPE
  5
3B
330
5
100
AcDbSymbolTableRecord
100
AcDbLinetypeTableRecord
  2
DIVIDE
 70
     0
  3
CADPAC LINETYPE
 72
    65
 73
     6
 40
7.241379310344684
 49
2.715517241379274
 74
     0
 49
-0.9051724137930819
 74
     0
 49
0.9051724137930819
 74
     0
 49
-0.9051724137930819
 74
     0
 49
0.9051724137930819
 74
     0
 49
-0.9051724137930819
 74
     0
  0
LTYPE
  5
3C
330
5
100
AcDbSymbolTableRecord
100
AcDbLinetypeTableRecord
  2
DIVIDE2
 70
     0
  3
CADPAC LINETYPE
 72
    65
 73
     6
 40
5.431034482758513
 49
2.036637931034456
 74
     0
 49
-0.6788793103448114
 74
     0
 49
0.6788793103448114
 74
     0
 49
-0.6788793103448114
 74
     0
 49
0.6788793103448114
 74
     0
 49
-0.6788793103448114
 74
     0
  0
LTYPE
  5
3D
330
5
100
AcDbSymbolTableRecord
100
AcDbLinetypeTableRecord
  2
BORDERX2
 70
     0
  3
CADPAC LINETYPE
 72
    65
 73
     6
 40
9.900323275861958
 49
2.828663793103416
 74
     0
 49
-1.414331896551708
 74
     0
 49
2.828663793103416
 74
     0
 49
-1.414331896551708
 74
     0
 49
0.0
 74
     0
 49
-1.414331896551708
 74
     0
  0
LTYPE
  5
3E
330
5
100
AcDbSymbolTableRecord
100
AcDbLinetypeTableRecord
  2
BORDER
 70
     0
  3
CADPAC LINETYPE
 72
    65
 73
     6
 40
7.920258620689566
 49
2.262931034482733
 74
     0
 49
-1.131465517241367
 74
     0
 49
2.262931034482733
 74
     0
 49
-1.131465517241367
 74
     0
 49
0.0
 74
     0
 49
-1.131465517241367
 74
     0
  0
LTYPE
  5
3F
330
5
100
AcDbSymbolTableRecord
100
AcDbLinetypeTableRecord
  2
BORDER2
 70
     0
  3
CADPAC LINETYPE
 72
    65
 73
     6
 40
5.883620689655032
 49
1.810344827586192
 74
     0
 49
-1.131465517241338
 74
     0
 49
0.6788793103447972
 74
     0
 49
-1.131465517241338
 74
     0
 49
0.0
 74
     0
 49
-1.131465517241367
 74
     0
  0
LTYPE
  5
40
330
5
100
AcDbSymbolTableRecord
100
AcDbLinetypeTableRecord
  2
PHANTOMX2
 70
     0
  3
CADPAC LINETYPE
 72
    65
 73
     6
 40
8.485991379310249
 49
2.828663793103416
 74
     0
 49
-1.131465517241367
 74
     0
 49
1.131465517241367
 74
     0
 49
-1.131465517241367
 74
     0
 49
1.131465517241367
 74
     0
 49
-1.131465517241367
 74
     0
  0
LTYPE
  5
41
330
5
100
AcDbSymbolTableRecord
100
AcDbLinetypeTableRecord
  2
PHANTOM
 70
     0
  3
CADPAC LINETYPE
 72
    65
 73
     6
 40
7.015086206896473
 49
2.262931034482733
 74
     0
 49
-1.131465517241367
 74
     0
 49
0.67887931034482
 74
     0
 49
-1.131465517241367
 74
     0
 49
0.67887931034482
 74
     0
 49
-1.131465517241367
 74
     0
  0
LTYPE
  5
42
330
5
100
AcDbSymbolTableRecord
100
AcDbLinetypeTableRecord
  2
PHANTOM2
 70
     0
  3
CADPAC LINETYPE
 72
    65
 73
     6
 40
5.996767241379242
 49
1.69719827586205
 74
     0
 49
-1.131465517241367
 74
     0
 49
0.4525862068965467
 74
     0
 49
-1.131465517241367
 74
     0
 49
0.4525862068965467
 74
     0
 49
-1.131465517241367
 74
     0
  0
LTYPE
  5
43
330
5
100
AcDbSymbolTableRecord
100
AcDbLinetypeTableRecord
  2
ACAD_ISO06W100
 70
     0
  3
CADPAC LINETYPE
 72
    65
 73
     8
 40
11.99353448275835
 49
5.431034482758605
 74
     0
 49
-1.131465517241338
 74
     0
 49
0.6788793103447972
 74
     0
 49
-1.131465517241338
 74
     0
 49
0.6788793103447972
 74
     0
 49
-1.131465517241338
 74
     0
 49
0.6788793103447972
 74
     0
 49
-1.131465517241338
 74
     0
  0
LTYPE
  5
44
330
5
100
AcDbSymbolTableRecord
100
AcDbLinetypeTableRecord
  2
ACAD_ISO13W100
 70
     0
  3
CADPAC LINETYPE
 72
    65
 73
     8
 40
9.051724137930933
 49
2.262931034482733
 74
     0
 49
-1.131465517241367
 74
     0
 49
2.262931034482733
 74
     0
 49
-1.131465517241367
 74
     0
 49
0.0
 74
     0
 49
-1.131465517241367
 74
     0
 49
0.0
 74
     0
 49
-1.131465517241367
 74
     0
  0
LTYPE
  5
45
330
5
100
AcDbSymbolTableRecord
100
AcDbLinetypeTableRecord
  2
ACAD_ISO14W100
 70
     0
  3
CADPAC LINETYPE
 72
    65
 73
     8
 40
6.788793103448199
 49
2.262931034482733
 74
     0
 49
-1.131465517241367
 74
     0
 49
0.0
 74
     0
 49
-1.131465517241367
 74
     0
 49
0.0
 74
     0
 49
-1.131465517241367
 74
     0
 49
0.0
 74
     0
 49
-1.131465517241367
 74
     0
  0
ENDTAB
  0
TABLE
  2
LAYER
  5
2
330
0
100
AcDbSymbolTable
 70
     7
  0
LAYER
  5
10
330
2
100
AcDbSymbolTableRecord
100
AcDbLayerTableRecord
  2
0
 70
     0
 62
     7
  6
CONTINUOUS
  0
LAYER
  5
46
330
2
100
AcDbSymbolTableRecord
100
AcDbLayerTableRecord
  2
LAYER0007
 70
     0
 62
     7
  6
CONTINUOUS
  0
LAYER
  5
47
330
2
100
AcDbSymbolTableRecord
100
AcDbLayerTableRecord
  2
LAYER0008
 70
     0
 62
     7
  6
CONTINUOUS
  0
LAYER
  5
48
330
2
100
AcDbSymbolTableRecord
100
AcDbLayerTableRecord
  2
LAYER0012
 70
     0
 62
     7
  6
CONTINUOUS
  0
LAYER
  5
49
330
2
100
AcDbSymbolTableRecord
100
AcDbLayerTableRecord
  2
LAYER0013
 70
     0
 62
     7
  6
CONTINUOUS
  0
LAYER
  5
4A
330
2
100
AcDbSymbolTableRecord
100
AcDbLayerTableRecord
  2
LAYER0048
 70
     0
 62
     7
  6
CONTINUOUS
  0
LAYER
  5
4B
330
2
100
AcDbSymbolTableRecord
100
AcDbLayerTableRecord
  2
LAYER0192
 70
     0
 62
     7
  6
CONTINUOUS
  0
ENDTAB
  0
TABLE
  2
STYLE
  5
3
330
0
100
AcDbSymbolTable
 70
     2
  0
STYLE
  5
11
330
3
100
AcDbSymbolTableRecord
100
AcDbTextStyleTableRecord
  2
STANDARD
 70
     0
 40
0.0
 41
1.0
 50
0.0
 71
     0
 42
0.2
  3
txt
  4

  0
STYLE
  5
87
330
3
100
AcDbSymbolTableRecord
100
AcDbTextStyleTableRecord
  2
FDASTYLE0
 70
     0
 40
4.0
 41
0.7999999999999998
 50
0.0
 71
     0
 42
0.2
  3
txt.shx
  4
bigfont
  0
ENDTAB
  0
TABLE
  2
VIEW
  5
6
330
0
100
AcDbSymbolTable
 70
     0
  0
ENDTAB
  0
TABLE
  2
UCS
  5
7
330
0
100
AcDbSymbolTable
 70
     0
  0
ENDTAB
  0
TABLE
  2
APPID
  5
9
330
0
100
AcDbSymbolTable
 70
     2
  0
APPID
  5
12
330
9
100
AcDbSymbolTableRecord
100
AcDbRegAppTableRecord
  2
ACAD
 70
     0
  0
APPID
  5
2A
330
9
100
AcDbSymbolTableRecord
100
AcDbRegAppTableRecord
  2
DAFUSIONOUT
 70
     0
  0
ENDTAB
  0
TABLE
  2
DIMSTYLE
  5
A
330
0
100
AcDbSymbolTable
 70
     1
  0
DIMSTYLE
105
27
330
A
100
AcDbSymbolTableRecord
100
AcDbDimStyleTableRecord
  2
STANDARD
 70
     0
  3

  4

  5

  6

  7

 40
1.0
 41
0.18
 42
0.0625
 43
0.38
 44
0.18
 45
0.0
 46
0.0
 47
0.0
 48
0.0
140
0.18
141
0.09
142
0.0
143
25.4
144
1.0
145
0.0
146
1.0
147
0.09
 71
     0
 72
     0
 73
     1
 74
     1
 75
     0
 76
     0
 77
     0
 78
     0
170
     0
171
     2
172
     0
173
     0
174
     0
175
     0
176
     0
177
     0
178
     0
270
     2
271
     4
272
     4
273
     2
274
     2
340
11
275
     0
280
     0
281
     0
282
     0
283
     1
284
     0
285
     0
286
     0
287
     3
288
     0
  0
ENDTAB
  0
TABLE
  2
BLOCK_RECORD
  5
1
330
0
100
AcDbSymbolTable
 70
    18
  0
BLOCK_RECORD
  5
1F
330
1
100
AcDbSymbolTableRecord
100
AcDbBlockTableRecord
  2
*MODEL_SPACE
  0
BLOCK_RECORD
  5
1B
330
1
100
AcDbSymbolTableRecord
100
AcDbBlockTableRecord
  2
*PAPER_SPACE
  0
BLOCK_RECORD
  5
4D
330
1
100
AcDbSymbolTableRecord
100
AcDbBlockTableRecord
  2
DA_IMAGEDIMGROUP_1
  0
BLOCK_RECORD
  5
50
330
1
100
AcDbSymbolTableRecord
100
AcDbBlockTableRecord
  2
DA_IMAGEDIMGROUP_2
  0
BLOCK_RECORD
  5
53
330
1
100
AcDbSymbolTableRecord
100
AcDbBlockTableRecord
  2
DA_IMAGEDIMGROUP_3
  0
BLOCK_RECORD
  5
56
330
1
100
AcDbSymbolTableRecord
100
AcDbBlockTableRecord
  2
DA_IMAGEDIMGROUP_4
  0
BLOCK_RECORD
  5
59
330
1
100
AcDbSymbolTableRecord
100
AcDbBlockTableRecord
  2
DA_IMAGEDIMGROUP_5
  0
BLOCK_RECORD
  5
5C
330
1
100
AcDbSymbolTableRecord
100
AcDbBlockTableRecord
  2
DA_IMAGEDIMGROUP_6
  0
BLOCK_RECORD
  5
5F
330
1
100
AcDbSymbolTableRecord
100
AcDbBlockTableRecord
  2
DA_IMAGEDIMGROUP_7
  0
BLOCK_RECORD
  5
62
330
1
100
AcDbSymbolTableRecord
100
AcDbBlockTableRecord
  2
DA_IMAGEDIMGROUP_8
  0
BLOCK_RECORD
  5
65
330
1
100
AcDbSymbolTableRecord
100
AcDbBlockTableRecord
  2
DA_IMAGEDIMGROUP_9
  0
BLOCK_RECORD
  5
68
330
1
100
AcDbSymbolTableRecord
100
AcDbBlockTableRecord
  2
DC_GROUP_1
  0
BLOCK_RECORD
  5
6B
330
1
100
AcDbSymbolTableRecord
100
AcDbBlockTableRecord
  2
DC_GROUP_2
  0
BLOCK_RECORD
  5
6E
330
1
100
AcDbSymbolTableRecord
100
AcDbBlockTableRecord
  2
DA_IMAGEDIMGROUP_10
  0
BLOCK_RECORD
  5
71
330
1
100
AcDbSymbolTableRecord
100
AcDbBlockTableRecord
  2
DA_IMAGEDIMGROUP_11
  0
BLOCK_RECORD
  5
74
330
1
100
AcDbSymbolTableRecord
100
AcDbBlockTableRecord
  2
DC_GROUP_3
  0
BLOCK_RECORD
  5
77
330
1
100
AcDbSymbolTableRecord
100
AcDbBlockTableRecord
  2
DA_IMAGEDIMGROUP_12
  0
BLOCK_RECORD
  5
7E
330
1
100
AcDbSymbolTableRecord
100
AcDbBlockTableRecord
  2
_OPEN30
  0
BLOCK_RECORD
  5
B7
330
1
100
AcDbSymbolTableRecord
100
AcDbBlockTableRecord
  2
_DOT
  0
ENDTAB
  0
ENDSEC
  0
SECTION
  2
BLOCKS
  0
BLOCK
  5
20
330
1F
100
AcDbEntity
  8
0
100
AcDbBlockBegin
  2
*MODEL_SPACE
 70
     0
 71
     0
 10
0.0
 20
0.0
 30
0.0
  3
*MODEL_SPACE
  1

  0
ENDBLK
  5
21
330
1F
100
AcDbEntity
  8
0
100
AcDbBlockEnd
  0
BLOCK
  5
1C
330
1B
100
AcDbEntity
 67
     1
  8
0
100
AcDbBlockBegin
  2
*PAPER_SPACE
 70
     0
 71
     0
 10
0.0
 20
0.0
 30
0.0
  3
*PAPER_SPACE
  1

  0
ENDBLK
  5
1D
330
1B
100
AcDbEntity
 67
     1
  8
0
100
AcDbBlockEnd
  0
BLOCK
  5
4E
330
4D
100
AcDbEntity
  8
0
100
AcDbBlockBegin
  2
DA_IMAGEDIMGROUP_1
 70
     0
 71
     0
 10
0.0
 20
0.0
 30
0.0
  3
DA_IMAGEDIMGROUP_1
  1

  0
LINE
  5
7A
330
4D
100
AcDbEntity
  8
0
  6
CONTINUOUS
 62
     9
100
AcDbLine
 10
-18.65423369240811
 20
-2.950000000000024
 30
0.0
 11
-28.65423369240811
 21
-2.950000000000024
 31
0.0
  0
LINE
  5
7B
330
4D
100
AcDbEntity
  8
0
  6
CONTINUOUS
 62
     9
100
AcDbLine
 10
-18.2542336924081
 20
-7.950000000000024
 30
0.0
 11
-28.65423369240811
 21
-7.950000000000024
 31
0.0
  0
LINE
  5
7C
330
4D
100
AcDbEntity
  8
0
  6
CONTINUOUS
 62
     9
100
AcDbLine
 10
-27.65423369240811
 20
-7.950000000000024
 30
0.0
 11
-27.65423369240811
 21
-2.950000000000024
 31
0.0
  0
LINE
  5
7D
330
4D
100
AcDbEntity
  8
0
  6
CONTINUOUS
 62
     9
100
AcDbLine
 10
-27.65423369240811
 20
22.64999999999997
 30
0.0
 11
-27.65423369240811
 21
-2.950000000000024
 31
0.0
  0
INSERT
  5
84
330
4D
100
AcDbEntity
  8
0
 62
     9
100
AcDbBlockReference
  2
_OPEN30
 10
-27.65423369240811
 20
-2.950000000000024
 30
0.0
 41
3.000002787824364
 42
2.999989273978464
 50
270.0
  0
LINE
  5
85
330
4D
100
AcDbEntity
  8
0
  6
CONTINUOUS
 62
     9
100
AcDbLine
 10
-27.65423369240811
 20
-12.95000000000002
 30
0.0
 11
-27.65423369240811
 21
-7.950000000000024
 31
0.0
  0
INSERT
  5
86
330
4D
100
AcDbEntity
  8
0
 62
     9
100
AcDbBlockReference
  2
_OPEN30
 10
-27.65423369240811
 20
-7.950000000000024
 30
0.0
 41
3.000002787824364
 42
2.999989273978464
 50
90.0
  0
TEXT
  5
88
330
4D
100
AcDbEntity
  8
0
 62
     7
100
AcDbText
 10
-28.65423369240811
 20
7.049999999999976
 30
0.0
 40
4.0
  1
5
 50
90.0
 41
0.7999999999999998
  7
FDASTYLE0
 72
     5
 11
-28.65423369240811
 21
10.24999999999998
 31
0.0
100
AcDbText
  0
TEXT
  5
89
330
4D
100
AcDbEntity
  8
0
 62
     7
100
AcDbText
 10
-31.2542336924081
 20
11.24999999999996
 30
0.0
 40
2.6
  1
±0.15
 50
90.0
 41
0.7692307692307692
  7
FDASTYLE0
 72
     5
 11
-31.2542336924081
 21
21.64999999999996
 31
0.0
100
AcDbText
  0
ENDBLK
  5
4F
330
4D
100
AcDbEntity
  8
0
100
AcDbBlockEnd
  0
BLOCK
  5
51
330
50
100
AcDbEntity
  8
0
100
AcDbBlockBegin
  2
DA_IMAGEDIMGROUP_2
 70
     0
 71
     0
 10
0.0
 20
0.0
 30
0.0
  3
DA_IMAGEDIMGROUP_2
  1

  0
LINE
  5
8A
330
50
100
AcDbEntity
  8
0
  6
CONTINUOUS
 62
     9
100
AcDbLine
 10
-18.2542336924081
 20
-7.950000000000024
 30
0.0
 11
-38.65423369240811
 21
-7.950000000000024
 31
0.0
  0
LINE
  5
8B
330
50
100
AcDbEntity
  8
0
  6
CONTINUOUS
 62
     9
100
AcDbLine
 10
-10.65423369240811
 20
-1.950000000000024
 30
0.0
 11
-38.65423369240811
 21
-1.950000000000024
 31
0.0
  0
LINE
  5
8C
330
50
100
AcDbEntity
  8
0
  6
CONTINUOUS
 62
     9
100
AcDbLine
 10
-37.65423369240811
 20
-7.950000000000024
 30
0.0
 11
-37.65423369240811
 21
-1.950000000000024
 31
0.0
  0
LINE
  5
8D
330
50
100
AcDbEntity
  8
0
  6
CONTINUOUS
 62
     9
100
AcDbLine
 10
-37.65423369240811
 20
27.92999999999996
 30
0.0
 11
-37.65423369240811
 21
-1.950000000000024
 31
0.0
  0
INSERT
  5
8E
330
50
100
AcDbEntity
  8
0
 62
     9
100
AcDbBlockReference
  2
_OPEN30
 10
-37.65423369240811
 20
-1.950000000000024
 30
0.0
 41
3.000002787824364
 42
2.999989273978464
 50
270.0
  0
LINE
  5
8F
330
50
100
AcDbEntity
  8
0
  6
CONTINUOUS
 62
     9
100
AcDbLine
 10
-37.65423369240811
 20
-12.95000000000002
 30
0.0
 11
-37.65423369240811
 21
-7.950000000000024
 31
0.0
  0
INSERT
  5
90
330
50
100
AcDbEntity
  8
0
 62
     9
100
AcDbBlockReference
  2
_OPEN30
 10
-37.65423369240811
 20
-7.950000000000024
 30
0.0
 41
3.000002787824364
 42
2.999989273978464
 50
90.0
  0
TEXT
  5
91
330
50
100
AcDbEntity
  8
0
 62
     7
100
AcDbText
 10
-38.65423369240811
 20
7.049999999999976
 30
0.0
 40
4.0
  1
φ6
 50
90.0
 41
0.7272727272727271
  7
FDASTYLE0
 72
     5
 11
-38.65423369240811
 21
13.44999999999997
 31
0.0
100
AcDbText
  0
TEXT
  5
92
330
50
100
AcDbEntity
  8
0
 62
     7
100
AcDbText
 10
-41.2542336924081
 20
14.44999999999997
 30
0.0
 40
2.6
  1
+0.005
 50
90.0
 41
0.7999999999999999
  7
FDASTYLE0
 72
     5
 11
-41.2542336924081
 21
26.92999999999997
 31
0.0
100
AcDbText
  0
TEXT
  5
93
330
50
100
AcDbEntity
  8
0
 62
     7
100
AcDbText
 10
-38.4542336924081
 20
14.44999999999997
 30
0.0
 40
2.6
  1
-0.015
 50
90.0
 41
0.7999999999999999
  7
FDASTYLE0
 72
     5
 11
-38.4542336924081
 21
26.92999999999997
 31
0.0
100
AcDbText
  0
ENDBLK
  5
52
330
50
100
AcDbEntity
  8
0
100
AcDbBlockEnd
  0
BLOCK
  5
54
330
53
100
AcDbEntity
  8
0
100
AcDbBlockBegin
  2
DA_IMAGEDIMGROUP_3
 70
     0
 71
     0
 10
0.0
 20
0.0
 30
0.0
  3
DA_IMAGEDIMGROUP_3
  1

  0
LINE
  5
94
330
53
100
AcDbEntity
  8
0
  6
CONTINUOUS
 62
     9
100
AcDbLine
 10
-6.654233692408106
 20
-10.95000000000002
 30
0.0
 11
-48.65423369240811
 21
-10.95000000000002
 31
0.0
  0
LINE
  5
95
330
53
100
AcDbEntity
  8
0
  6
CONTINUOUS
 62
     9
100
AcDbLine
 10
-6.654233692408106
 20
1.049999999999976
 30
0.0
 11
-48.65423369240811
 21
1.049999999999976
 31
0.0
  0
LINE
  5
96
330
53
100
AcDbEntity
  8
0
  6
CONTINUOUS
 62
     9
100
AcDbLine
 10
-47.65423369240811
 20
-10.95000000000002
 30
0.0
 11
-47.65423369240811
 21
1.049999999999976
 31
0.0
  0
LINE
  5
97
330
53
100
AcDbEntity
  8
0
  6
CONTINUOUS
 62
     9
100
AcDbLine
 10
-47.65423369240811
 20
31.12999999999995
 30
0.0
 11
-47.65423369240811
 21
1.049999999999976
 31
0.0
  0
INSERT
  5
98
330
53
100
AcDbEntity
  8
0
 62
     9
100
AcDbBlockReference
  2
_OPEN30
 10
-47.65423369240811
 20
1.049999999999976
 30
0.0
 41
3.000002787824364
 42
2.999989273978464
 50
270.0
  0
LINE
  5
99
330
53
100
AcDbEntity
  8
0
  6
CONTINUOUS
 62
     9
100
AcDbLine
 10
-47.65423369240811
 20
-15.95000000000002
 30
0.0
 11
-47.65423369240811
 21
-10.95000000000002
 31
0.0
  0
INSERT
  5
9A
330
53
100
AcDbEntity
  8
0
 62
     9
100
AcDbBlockReference
  2
_OPEN30
 10
-47.65423369240811
 20
-10.95000000000002
 30
0.0
 41
3.000002787824364
 42
2.999989273978464
 50
90.0
  0
TEXT
  5
9B
330
53
100
AcDbEntity
  8
0
 62
     7
100
AcDbText
 10
-48.65423369240811
 20
7.049999999999976
 30
0.0
 40
4.0
  1
φ12
 50
90.0
 41
0.7500000000000001
  7
FDASTYLE0
 72
     5
 11
-48.65423369240811
 21
16.64999999999998
 31
0.0
100
AcDbText
  0
TEXT
  5
9C
330
53
100
AcDbEntity
  8
0
 62
     7
100
AcDbText
 10
-51.25423369240811
 20
17.64999999999997
 30
0.0
 40
2.6
  1
+0.005
 50
90.0
 41
0.8000000000000002
  7
FDASTYLE0
 72
     5
 11
-51.25423369240811
 21
30.12999999999997
 31
0.0
100
AcDbText
  0
TEXT
  5
9D
330
53
100
AcDbEntity
  8
0
 62
     7
100
AcDbText
 10
-48.45423369240811
 20
17.64999999999997
 30
0.0
 40
2.6
  1
-0.030
 50
90.0
 41
0.8000000000000002
  7
FDASTYLE0
 72
     5
 11
-48.45423369240811
 21
30.12999999999997
 31
0.0
100
AcDbText
  0
ENDBLK
  5
55
330
53
100
AcDbEntity
  8
0
100
AcDbBlockEnd
  0
BLOCK
  5
57
330
56
100
AcDbEntity
  8
0
100
AcDbBlockBegin
  2
DA_IMAGEDIMGROUP_4
 70
     0
 71
     0
 10
0.0
 20
0.0
 30
0.0
  3
DA_IMAGEDIMGROUP_4
  1

  0
LINE
  5
9E
330
56
100
AcDbEntity
  8
0
  6
CONTINUOUS
 62
     9
100
AcDbLine
 10
-4.454233692408103
 20
-15.95000000000002
 30
0.0
 11
-58.65423369240811
 21
-15.95000000000002
 31
0.0
  0
LINE
  5
9F
330
56
100
AcDbEntity
  8
0
  6
CONTINUOUS
 62
     9
100
AcDbLine
 10
-4.454233692408103
 20
6.049999999999976
 30
0.0
 11
-58.65423369240811
 21
6.049999999999976
 31
0.0
  0
LINE
  5
A0
330
56
100
AcDbEntity
  8
0
  6
CONTINUOUS
 62
     9
100
AcDbLine
 10
-57.65423369240811
 20
-15.95000000000002
 30
0.0
 11
-57.65423369240811
 21
6.049999999999976
 31
0.0
  0
INSERT
  5
A1
330
56
100
AcDbEntity
  8
0
 62
     9
100
AcDbBlockReference
  2
_OPEN30
 10
-57.65423369240811
 20
-15.95000000000002
 30
0.0
 41
3.000002787824364
 42
2.999989273978464
 50
270.0
  0
INSERT
  5
A2
330
56
100
AcDbEntity
  8
0
 62
     9
100
AcDbBlockReference
  2
_OPEN30
 10
-57.65423369240811
 20
6.049999999999976
 30
0.0
 41
3.000002787824364
 42
2.999989273978464
 50
90.0
  0
TEXT
  5
A3
330
56
100
AcDbEntity
  8
0
 62
     7
100
AcDbText
 10
-58.65423369240811
 20
-14.41000000000003
 30
0.0
 40
4.0
  1
φ22
 50
90.0
 41
0.7499999999999996
  7
FDASTYLE0
 72
     5
 11
-58.65423369240811
 21
-4.810000000000038
 31
0.0
100
AcDbText
  0
TEXT
  5
A4
330
56
100
AcDbEntity
  8
0
 62
     7
100
AcDbText
 10
-61.25423369240811
 20
-3.810000000000038
 30
0.0
 40
2.6
  1
±0.2
 50
90.0
 41
0.7619047619047619
  7
FDASTYLE0
 72
     5
 11
-61.25423369240811
 21
4.509999999999963
 31
0.0
100
AcDbText
  0
ENDBLK
  5
58
330
56
100
AcDbEntity
  8
0
100
AcDbBlockEnd
  0
BLOCK
  5
5A
330
59
100
AcDbEntity
  8
0
100
AcDbBlockBegin
  2
DA_IMAGEDIMGROUP_5
 70
     0
 71
     0
 10
0.0
 20
0.0
 30
0.0
  3
DA_IMAGEDIMGROUP_5
  1

  0
LINE
  5
A5
330
59
100
AcDbEntity
  8
0
  6
CONTINUOUS
 62
     9
100
AcDbLine
 10
-83.99391070889477
 20
-12.19484985072874
 30
0.0
 11
-73.31455667592142
 21
2.294849850728717
 31
0.0
  0
LINE
  5
A6
330
59
100
AcDbEntity
  8
0
  6
CONTINUOUS
 62
     9
100
AcDbLine
 10
-59.29299021245781
 20
21.31924840258088
 30
0.0
 11
-73.31455667592142
 21
2.294849850728717
 31
0.0
  0
INSERT
  5
A7
330
59
100
AcDbEntity
  8
0
 62
     9
100
AcDbBlockReference
  2
_OPEN30
 10
-73.31455667592142
 20
2.294849850728717
 30
0.0
 41
3.000002787824364
 42
2.999989273978464
 50
233.6086441606615
  0
LINE
  5
A8
330
59
100
AcDbEntity
  8
0
  6
CONTINUOUS
 62
     9
100
AcDbLine
 10
-86.96039794027625
 20
-16.2197664344669
 30
0.0
 11
-83.99391070889477
 21
-12.19484985072874
 31
0.0
  0
INSERT
  5
A9
330
59
100
AcDbEntity
  8
0
 62
     9
100
AcDbBlockReference
  2
_OPEN30
 10
-83.99391070889477
 20
-12.19484985072874
 30
0.0
 41
3.000002787824364
 42
2.999989273978464
 50
53.6086441606614
  0
TEXT
  5
AA
330
59
100
AcDbEntity
  8
0
 62
     7
100
AcDbText
 10
-71.91645865902929
 20
5.87727817924425
 30
0.0
 40
4.0
  1
φ18
 50
53.60864416066147
 41
0.7500000000000003
  7
FDASTYLE0
 72
     5
 11
-66.22080317477683
 21
13.60511802002156
 31
0.0
100
AcDbText
  0
TEXT
  5
AB
330
59
100
AcDbEntity
  8
0
 62
     7
100
AcDbText
 10
-67.72046235204438
 20
15.95267469708758
 30
0.0
 40
2.6
  1
±0.2
 50
53.60864416066147
 41
0.7619047619047623
  7
FDASTYLE0
 72
     5
 11
-62.78422759902558
 21
22.65013589242791
 31
0.0
100
AcDbText
  0
ENDBLK
  5
5B
330
59
100
AcDbEntity
  8
0
100
AcDbBlockEnd
  0
BLOCK
  5
5D
330
5C
100
AcDbEntity
  8
0
100
AcDbBlockBegin
  2
DA_IMAGEDIMGROUP_6
 70
     0
 71
     0
 10
0.0
 20
0.0
 30
0.0
  3
DA_IMAGEDIMGROUP_6
  1

  0
LINE
  5
AC
330
5C
100
AcDbEntity
  8
0
  6
CONTINUOUS
 62
     9
100
AcDbLine
 10
-17.65423369240811
 20
-1.950000000000038
 30
0.0
 11
-17.65423369240811
 21
15.04999999999996
 31
0.0
  0
LINE
  5
AD
330
5C
100
AcDbEntity
  8
0
  6
CONTINUOUS
 62
     9
100
AcDbLine
 10
-9.654233692408113
 20
-0.9500000000000384
 30
0.0
 11
-9.654233692408113
 21
15.04999999999996
 31
0.0
  0
LINE
  5
AE
330
5C
100
AcDbEntity
  8
0
  6
CONTINUOUS
 62
     9
100
AcDbLine
 10
-17.65423369240811
 20
14.04999999999996
 30
0.0
 11
-9.654233692408113
 21
14.04999999999996
 31
0.0
  0
INSERT
  5
AF
330
5C
100
AcDbEntity
  8
0
 62
     9
100
AcDbBlockReference
  2
_OPEN30
 10
-17.65423369240811
 20
14.04999999999996
 30
0.0
 41
3.000002787824364
 42
2.999989273978464
 50
180.0
  0
INSERT
  5
B0
330
5C
100
AcDbEntity
  8
0
 62
     9
100
AcDbBlockReference
  2
_OPEN30
 10
-9.654233692408113
 20
14.04999999999996
 30
0.0
 41
3.000002787824364
 42
2.999989273978464
 50
360.0
  0
TEXT
  5
B1
330
5C
100
AcDbEntity
  8
0
 62
     7
100
AcDbText
 10
-15.25423369240811
 20
15.04999999999996
 30
0.0
 40
4.0
  1
8
 41
0.7999999999999998
  7
FDASTYLE0
 72
     5
 11
-12.05423369240811
 21
15.04999999999996
 31
0.0
100
AcDbText
  0
ENDBLK
  5
5E
330
5C
100
AcDbEntity
  8
0
100
AcDbBlockEnd
  0
BLOCK
  5
60
330
5F
100
AcDbEntity
  8
0
100
AcDbBlockBegin
  2
DA_IMAGEDIMGROUP_7
 70
     0
 71
     0
 10
0.0
 20
0.0
 30
0.0
  3
DA_IMAGEDIMGROUP_7
  1

  0
LINE
  5
B2
330
5F
100
AcDbEntity
  8
0
  6
CONTINUOUS
 62
     9
100
AcDbLine
 10
-17.65423369240811
 20
-1.950000000000038
 30
0.0
 11
-17.65423369240811
 21
23.04999999999996
 31
0.0
  0
LINE
  5
B3
330
5F
100
AcDbEntity
  8
0
  6
CONTINUOUS
 62
     9
100
AcDbLine
 10
-6.754233692408107
 20
1.549999999999962
 30
0.0
 11
-6.754233692408107
 21
23.04999999999996
 31
0.0
  0
LINE
  5
B4
330
5F
100
AcDbEntity
  8
0
  6
CONTINUOUS
 62
     9
100
AcDbLine
 10
-3.654233692408113
 20
6.849999999999973
 30
0.0
 11
-3.654233692408113
 21
23.04999999999996
 31
0.0
  0
LINE
  5
B5
330
5F
100
AcDbEntity
  8
0
  6
CONTINUOUS
 62
     9
100
AcDbLine
 10
-6.754233692408107
 20
22.04999999999996
 30
0.0
 11
-3.654233692408113
 21
22.04999999999996
 31
0.0
  0
LINE
  5
B6
330
5F
100
AcDbEntity
  8
0
  6
CONTINUOUS
 62
     9
100
AcDbLine
 10
-17.65423369240811
 20
22.04999999999996
 30
0.0
 11
-6.754233692408107
 21
22.04999999999996
 31
0.0
  0
INSERT
  5
BC
330
5F
100
AcDbEntity
  8
0
 62
     9
100
AcDbBlockReference
  2
_DOT
 10
-6.754233692408107
 20
22.04999999999996
 30
0.0
 41
2.5
 42
2.5
 50
360.0
  0
LINE
  5
BD
330
5F
100
AcDbEntity
  8
0
  6
CONTINUOUS
 62
     9
100
AcDbLine
 10
10.84354630759189
 20
22.04999999999996
 30
0.0
 11
-3.654233692408113
 21
22.04999999999996
 31
0.0
  0
INSERT
  5
BE
330
5F
100
AcDbEntity
  8
0
 62
     9
100
AcDbBlockReference
  2
_OPEN30
 10
-3.654233692408113
 20
22.04999999999996
 30
0.0
 41
3.000002787824364
 42
2.999989273978464
 50
180.0
  0
LINE
  5
BF
330
5F
100
AcDbEntity
  8
0
  6
CONTINUOUS
 62
     9
100
AcDbLine
 10
-22.65423369240811
 20
22.04999999999996
 30
0.0
 11
-17.65423369240811
 21
22.04999999999996
 31
0.0
  0
INSERT
  5
C0
330
5F
100
AcDbEntity
  8
0
 62
     9
100
AcDbBlockReference
  2
_OPEN30
 10
-17.65423369240811
 20
22.04999999999996
 30
0.0
 41
3.000002787824364
 42
2.999989273978464
 50
360.0
  0
TEXT
  5
C1
330
5F
100
AcDbEntity
  8
0
 62
     7
100
AcDbText
 10
-17.65135179301786
 20
23.04999999999996
 30
0.0
 40
4.0
  1
10.9
 41
0.7999999999999999
  7
FDASTYLE0
 72
     5
 11
-4.851351793017861
 21
23.04999999999996
 31
0.0
100
AcDbText
  0
TEXT
  5
C2
330
5F
100
AcDbEntity
  8
0
 62
     7
100
AcDbText
 10
0.2435463075918882
 20
23.04999999999996
 30
0.0
 40
4.0
  1
3.1
 41
0.8000000000000002
  7
FDASTYLE0
 72
     5
 11
9.84354630759189
 21
23.04999999999996
 31
0.0
100
AcDbText
  0
ENDBLK
  5
61
330
5F
100
AcDbEntity
  8
0
100
AcDbBlockEnd
  0
BLOCK
  5
63
330
62
100
AcDbEntity
  8
0
100
AcDbBlockBegin
  2
DA_IMAGEDIMGROUP_8
 70
     0
 71
     0
 10
0.0
 20
0.0
 30
0.0
  3
DA_IMAGEDIMGROUP_8
  1

  0
LINE
  5
C3
330
62
100
AcDbEntity
  8
0
  6
CONTINUOUS
 62
     9
100
AcDbLine
 10
55.04576630759189
 20
3.294202590308949
 30
0.0
 11
55.04576630759189
 21
23.04999999999996
 31
0.0
  0
LINE
  5
C4
330
62
100
AcDbEntity
  8
0
  6
CONTINUOUS
 62
     9
100
AcDbLine
 10
19.44577273414845
 20
6.349999999999994
 30
0.0
 11
19.44577273414845
 21
23.04999999999996
 31
0.0
  0
LINE
  5
C5
330
62
100
AcDbEntity
  8
0
  6
CONTINUOUS
 62
     9
100
AcDbLine
 10
56.24576630759196
 20
2.242853089020947
 30
0.0
 11
56.24576630759196
 21
23.04999999999996
 31
0.0
  0
LINE
  5
C6
330
62
100
AcDbEntity
  8
0
  6
CONTINUOUS
 62
     9
100
AcDbLine
 10
55.04576630759189
 20
22.04999999999996
 30
0.0
 11
56.24576630759196
 21
22.04999999999996
 31
0.0
  0
LINE
  5
C7
330
62
100
AcDbEntity
  8
0
  6
CONTINUOUS
 62
     9
100
AcDbLine
 10
19.44577273414845
 20
22.04999999999996
 30
0.0
 11
55.04576630759189
 21
22.04999999999996
 31
0.0
  0
INSERT
  5
C8
330
62
100
AcDbEntity
  8
0
 62
     9
100
AcDbBlockReference
  2
_OPEN30
 10
19.44577273414845
 20
22.04999999999996
 30
0.0
 41
3.000002787824364
 42
2.999989273978464
 50
180.0
  0
INSERT
  5
C9
330
62
100
AcDbEntity
  8
0
 62
     9
100
AcDbBlockReference
  2
_OPEN30
 10
55.04576630759189
 20
22.04999999999996
 30
0.0
 41
3.000002787824364
 42
2.999989273978464
 50
360.0
  0
LINE
  5
CA
330
62
100
AcDbEntity
  8
0
  6
CONTINUOUS
 62
     9
100
AcDbLine
 10
70.74354630759197
 20
22.04999999999996
 30
0.0
 11
56.24576630759196
 21
22.04999999999996
 31
0.0
  0
INSERT
  5
CB
330
62
100
AcDbEntity
  8
0
 62
     9
100
AcDbBlockReference
  2
_OPEN30
 10
56.24576630759196
 20
22.04999999999996
 30
0.0
 41
3.000002787824364
 42
2.999989273978464
 50
180.0
  0
TEXT
  5
CC
330
62
100
AcDbEntity
  8
0
 62
     7
100
AcDbText
 10
30.84576952087017
 20
23.04999999999996
 30
0.0
 40
4.0
  1
35.6
 41
0.7999999999999998
  7
FDASTYLE0
 72
     5
 11
43.64576952087017
 21
23.04999999999996
 31
0.0
100
AcDbText
  0
TEXT
  5
CD
330
62
100
AcDbEntity
  8
0
 62
     7
100
AcDbText
 10
60.14354630759196
 20
23.04999999999996
 30
0.0
 40
4.0
  1
1.2
 41
0.8000000000000007
  7
FDASTYLE0
 72
     5
 11
69.74354630759197
 21
23.04999999999996
 31
0.0
100
AcDbText
  0
ENDBLK
  5
64
330
62
100
AcDbEntity
  8
0
100
AcDbBlockEnd
  0
BLOCK
  5
66
330
65
100
AcDbEntity
  8
0
100
AcDbBlockBegin
  2
DA_IMAGEDIMGROUP_9
 70
     0
 71
     0
 10
0.0
 20
0.0
 30
0.0
  3
DA_IMAGEDIMGROUP_9
  1

  0
LINE
  5
CE
330
65
100
AcDbEntity
  8
0
  6
CONTINUOUS
 62
     9
100
AcDbLine
 10
-17.65423369240811
 20
-1.950000000000038
 30
0.0
 11
-17.65423369240811
 21
31.04999999999996
 31
0.0
  0
LINE
  5
CF
330
65
100
AcDbEntity
  8
0
  6
CONTINUOUS
 62
     9
100
AcDbLine
 10
-3.654233692408113
 20
6.849999999999973
 30
0.0
 11
-3.654233692408113
 21
31.04999999999996
 31
0.0
  0
LINE
  5
D0
330
65
100
AcDbEntity
  8
0
  6
CONTINUOUS
 62
     9
100
AcDbLine
 10
55.04576630759189
 20
3.294202590308949
 30
0.0
 11
55.04576630759189
 21
31.04999999999996
 31
0.0
  0
LINE
  5
D1
330
65
100
AcDbEntity
  8
0
  6
CONTINUOUS
 62
     9
100
AcDbLine
 10
-17.65423369240811
 20
30.04999999999996
 30
0.0
 11
-3.654233692408113
 21
30.04999999999996
 31
0.0
  0
INSERT
  5
D2
330
65
100
AcDbEntity
  8
0
 62
     9
100
AcDbBlockReference
  2
_OPEN30
 10
-17.65423369240811
 20
30.04999999999996
 30
0.0
 41
3.000002787824364
 42
2.999989273978464
 50
180.0
  0
INSERT
  5
D3
330
65
100
AcDbEntity
  8
0
 62
     9
100
AcDbBlockReference
  2
_OPEN30
 10
-3.654233692408113
 20
30.04999999999996
 30
0.0
 41
3.000002787824364
 42
2.999989273978464
 50
360.0
  0
LINE
  5
D4
330
65
100
AcDbEntity
  8
0
  6
CONTINUOUS
 62
     9
100
AcDbLine
 10
-3.654233692408113
 20
30.04999999999996
 30
0.0
 11
55.04576630759189
 21
30.04999999999996
 31
0.0
  0
INSERT
  5
D5
330
65
100
AcDbEntity
  8
0
 62
     9
100
AcDbBlockReference
  2
_OPEN30
 10
-3.654233692408113
 20
30.04999999999996
 30
0.0
 41
3.000002787824364
 42
2.999989273978464
 50
180.0
  0
INSERT
  5
D6
330
65
100
AcDbEntity
  8
0
 62
     9
100
AcDbBlockReference
  2
_OPEN30
 10
55.04576630759189
 20
30.04999999999996
 30
0.0
 41
3.000002787824364
 42
2.999989273978464
 50
360.0
  0
TEXT
  5
D7
330
65
100
AcDbEntity
  8
0
 62
     7
100
AcDbText
 10
-13.85423369240811
 20
31.04999999999996
 30
0.0
 40
4.0
  1
14
 41
0.7999999999999999
  7
FDASTYLE0
 72
     5
 11
-7.454233692408109
 21
31.04999999999996
 31
0.0
100
AcDbText
  0
TEXT
  5
D8
330
65
100
AcDbEntity
  8
0
 62
     7
100
AcDbText
 10
19.29576630759189
 20
31.04999999999996
 30
0.0
 40
4.0
  1
58.7
 41
0.7999999999999998
  7
FDASTYLE0
 72
     5
 11
32.09576630759189
 21
31.04999999999996
 31
0.0
100
AcDbText
  0
ENDBLK
  5
67
330
65
100
AcDbEntity
  8
0
100
AcDbBlockEnd
  0
BLOCK
  5
69
330
68
100
AcDbEntity
  8
0
100
AcDbBlockBegin
  2
DC_GROUP_1
 70
     0
 71
     0
 10
0.0
 20
0.0
 30
0.0
  3
DC_GROUP_1
  1

  0
LINE
  5
D9
330
68
100
AcDbEntity
  8
0
  6
CONTINUOUS
 62
     9
100
AcDbLine
 10
32.79236461063652
 20
-10.20000000000001
 30
0.0
 11
19.44577273414846
 21
-31.9500000000042
 31
0.0
  0
INSERT
  5
DA
330
68
100
AcDbEntity
  8
0
 62
     9
100
AcDbBlockReference
  2
_DOT
 10
32.79236461063652
 20
-10.20000000000001
 30
0.0
 41
2.5
 42
2.5
 50
58.46520624351874
  0
LINE
  5
DB
330
68
100
AcDbEntity
  8
0
  6
CONTINUOUS
 62
     9
100
AcDbLine
 10
19.44577273414846
 20
-31.9500000000042
 30
0.0
 11
-25.35422726585155
 21
-31.9500000000042
 31
0.0
  0
TEXT
  5
DC
330
68
100
AcDbEntity
  8
0
 62
     7
100
AcDbText
 10
-25.35422726585155
 20
-30.9500000000042
 30
0.0
 40
4.0
  1
NAMEPLATE　LOT№
 41
0.7777777777777778
  7
FDASTYLE0
 72
     5
 11
19.44577273414846
 21
-30.9500000000042
 31
0.0
100
AcDbText
  0
ENDBLK
  5
6A
330
68
100
AcDbEntity
  8
0
100
AcDbBlockEnd
  0
BLOCK
  5
6C
330
6B
100
AcDbEntity
  8
0
100
AcDbBlockBegin
  2
DC_GROUP_2
 70
     0
 71
     0
 10
0.0
 20
0.0
 30
0.0
  3
DC_GROUP_2
  1

  0
LINE
  5
DD
330
6B
100
AcDbEntity
  8
0
  6
CONTINUOUS
 62
     9
100
AcDbLine
 10
-87.7829959773653
 20
-6.173241707093332
 30
0.0
 11
-89.65423369240811
 21
-23.95000000000002
 31
0.0
  0
INSERT
  5
DE
330
6B
100
AcDbEntity
  8
0
 62
     9
100
AcDbBlockReference
  2
_OPEN30
 10
-87.7829959773653
 20
-6.173241707093332
 30
0.0
 41
3.000002787824364
 42
2.999989273978464
 50
83.99099404250548
  0
LINE
  5
DF
330
6B
100
AcDbEntity
  8
0
  6
CONTINUOUS
 62
     9
100
AcDbLine
 10
-89.65423369240811
 20
-23.95000000000002
 30
0.0
 11
-19.25423369240809
 21
-23.95000000000002
 31
0.0
  0
TEXT
  5
E0
330
6B
100
AcDbEntity
  8
0
 62
     7
100
AcDbText
 10
-89.65423369240811
 20
-22.95000000000002
 30
0.0
 40
4.0
  1
 4-Ｍ3（Ｐ＝0.5）ＤＥＰＴＨ　4ＭＡＸ
 41
0.7096774193548388
  7
FDASTYLE0
 72
     5
 11
-19.25423369240811
 21
-22.95000000000002
 31
0.0
100
AcDbText
  0
ENDBLK
  5
6D
330
6B
100
AcDbEntity
  8
0
100
AcDbBlockEnd
  0
BLOCK
  5
6F
330
6E
100
AcDbEntity
  8
0
100
AcDbBlockBegin
  2
DA_IMAGEDIMGROUP_10
 70
     0
 71
     0
 10
0.0
 20
0.0
 30
0.0
  3
DA_IMAGEDIMGROUP_10
  1

  0
LINE
  5
E1
330
6E
100
AcDbEntity
  8
0
  6
CONTINUOUS
 62
     9
100
AcDbLine
 10
-78.65423369240811
 20
17.05
 30
0.0
 11
-78.65423369240811
 21
8.050000000000004
 31
0.0
  0
LINE
  5
E2
330
6E
100
AcDbEntity
  8
0
  6
CONTINUOUS
 62
     9
100
AcDbLine
 10
-100.6542336924081
 20
-4.949999999999993
 30
0.0
 11
-91.65423369240811
 21
-4.949999999999996
 31
0.0
  0
ARC
  5
E3
330
6E
100
AcDbEntity
  8
0
  6
CONTINUOUS
 62
     9
100
AcDbCircle
 10
-78.65423369240811
 20
-4.949999999999996
 30
0.0
 40
21.0
100
AcDbArc
 50
90.0
 51
180.0
  0
INSERT
  5
E4
330
6E
100
AcDbEntity
  8
0
 62
     9
100
AcDbBlockReference
  2
_OPEN30
 10
-78.65423369240811
 20
16.05
 30
0.0
 41
3.000002787824364
 42
2.999989273978464
 50
4.092558247680386
  0
INSERT
  5
E5
330
6E
100
AcDbEntity
  8
0
 62
     9
100
AcDbBlockReference
  2
_OPEN30
 10
-99.65423369240811
 20
-4.949999999999993
 30
0.0
 41
3.000002787824364
 42
2.999989273978464
 50
265.9074417523195
  0
TEXT
  5
E6
330
6E
100
AcDbEntity
  8
0
 62
     7
100
AcDbText
 10
-99.86743712800454
 20
4.949494936611668
 30
0.0
 40
4.0
  1
4-90°
 50
45.0
 41
0.7692307692307694
  7
FDASTYLE0
 72
     5
 11
-88.55372862901977
 21
16.26320343559643
 31
0.0
100
AcDbText
  0
ENDBLK
  5
70
330
6E
100
AcDbEntity
  8
0
100
AcDbBlockEnd
  0
BLOCK
  5
72
330
71
100
AcDbEntity
  8
0
100
AcDbBlockBegin
  2
DA_IMAGEDIMGROUP_11
 70
     0
 71
     0
 10
0.0
 20
0.0
 30
0.0
  3
DA_IMAGEDIMGROUP_11
  1

  0
LINE
  5
E7
330
71
100
AcDbEntity
  8
0
  6
CONTINUOUS
 62
     9
100
AcDbLine
 10
57.94577992364431
 20
3.050000089529679
 30
0.0
 11
57.94577992364431
 21
31.04999999999996
 31
0.0
  0
LINE
  5
E8
330
71
100
AcDbEntity
  8
0
  6
CONTINUOUS
 62
     9
100
AcDbLine
 10
55.04576630759189
 20
3.294202590308917
 30
0.0
 11
55.04576630759189
 21
31.04999999999996
 31
0.0
  0
LINE
  5
E9
330
71
100
AcDbEntity
  8
0
  6
CONTINUOUS
 62
     9
100
AcDbLine
 10
55.04576630759189
 20
30.04999999999996
 30
0.0
 11
57.94577992364431
 21
30.04999999999996
 31
0.0
  0
LINE
  5
EA
330
71
100
AcDbEntity
  8
0
  6
CONTINUOUS
 62
     9
100
AcDbLine
 10
62.94577992364431
 20
30.04999999999996
 30
0.0
 11
57.94577992364431
 21
30.04999999999996
 31
0.0
  0
INSERT
  5
EB
330
71
100
AcDbEntity
  8
0
 62
     9
100
AcDbBlockReference
  2
_OPEN30
 10
57.94577992364431
 20
30.04999999999996
 30
0.0
 41
3.000002787824364
 42
2.999989273978464
 50
180.0
  0
LINE
  5
EC
330
71
100
AcDbEntity
  8
0
  6
CONTINUOUS
 62
     9
100
AcDbLine
 10
50.04576630759189
 20
30.04999999999996
 30
0.0
 11
55.04576630759189
 21
30.04999999999996
 31
0.0
  0
INSERT
  5
ED
330
71
100
AcDbEntity
  8
0
 62
     9
100
AcDbBlockReference
  2
_OPEN30
 10
55.04576630759189
 20
30.04999999999996
 30
0.0
 41
3.000002787824364
 42
2.999989273978464
 50
360.0
  0
TEXT
  5
EE
330
71
100
AcDbEntity
  8
0
 62
     7
100
AcDbText
 10
51.6957731156181
 20
31.04999999999996
 30
0.0
 40
4.0
  1
2.9
 41
0.8000000000000007
  7
FDASTYLE0
 72
     5
 11
61.2957731156181
 21
31.04999999999996
 31
0.0
100
AcDbText
  0
ENDBLK
  5
73
330
71
100
AcDbEntity
  8
0
100
AcDbBlockEnd
  0
BLOCK
  5
75
330
74
100
AcDbEntity
  8
0
100
AcDbBlockBegin
  2
DC_GROUP_3
 70
     0
 71
     0
 10
0.0
 20
0.0
 30
0.0
  3
DC_GROUP_3
  1

  0
LINE
  5
EF
330
74
100
AcDbEntity
  8
0
  6
CONTINUOUS
 62
     9
100
AcDbLine
 10
84.90132876351412
 20
-9.575199064268183
 30
0.0
 11
77.94577992364431
 21
-23.9500000000042
 31
0.0
  0
INSERT
  5
F0
330
74
100
AcDbEntity
  8
0
 62
     9
100
AcDbBlockReference
  2
_OPEN30
 10
84.90132876351412
 20
-9.575199064268183
 30
0.0
 41
3.000002787824364
 42
2.999989273978464
 50
64.17900802581866
  0
LINE
  5
F1
330
74
100
AcDbEntity
  8
0
  6
CONTINUOUS
 62
     9
100
AcDbLine
 10
77.94577992364431
 20
-23.9500000000042
 30
0.0
 11
55.54577992364431
 21
-23.9500000000042
 31
0.0
  0
TEXT
  5
F2
330
74
100
AcDbEntity
  8
0
 62
     7
100
AcDbText
 10
55.5457799236443
 20
-22.9500000000042
 30
0.0
 40
4.0
  1
(＋)MARK
 41
0.7777777777777779
  7
FDASTYLE0
 72
     5
 11
77.94577992364431
 21
-22.9500000000042
 31
0.0
100
AcDbText
  0
ENDBLK
  5
76
330
74
100
AcDbEntity
  8
0
100
AcDbBlockEnd
  0
BLOCK
  5
78
330
77
100
AcDbEntity
  8
0
100
AcDbBlockBegin
  2
DA_IMAGEDIMGROUP_12
 70
     0
 71
     0
 10
0.0
 20
0.0
 30
0.0
  3
DA_IMAGEDIMGROUP_12
  1

  0
LINE
  5
F3
330
77
100
AcDbEntity
  8
0
  6
CONTINUOUS
 62
     9
100
AcDbLine
 10
40.79236461063652
 20
-15.44999999999996
 30
0.0
 11
40.79236461063652
 21
5.54999999999998
 31
0.0
  0
LINE
  5
F4
330
77
100
AcDbEntity
  8
0
  6
CONTINUOUS
 62
     9
100
AcDbLine
 10
40.79236461063652
 20
-36.04999999999996
 30
0.0
 11
40.79236461063652
 21
-15.44999999999996
 31
0.0
  0
INSERT
  5
F5
330
77
100
AcDbEntity
  8
0
 62
     9
100
AcDbBlockReference
  2
_OPEN30
 10
40.79236461063652
 20
-15.44999999999996
 30
0.0
 41
3.000002787824364
 42
2.999989273978464
 50
90.0
  0
LINE
  5
F6
330
77
100
AcDbEntity
  8
0
  6
CONTINUOUS
 62
     9
100
AcDbLine
 10
40.79236461063652
 20
10.54999999999998
 30
0.0
 11
40.79236461063652
 21
5.54999999999998
 31
0.0
  0
INSERT
  5
F7
330
77
100
AcDbEntity
  8
0
 62
     9
100
AcDbBlockReference
  2
_OPEN30
 10
40.79236461063652
 20
5.54999999999998
 30
0.0
 41
3.000002787824364
 42
2.999989273978464
 50
270.0
  0
TEXT
  5
F8
330
77
100
AcDbEntity
  8
0
 62
     7
100
AcDbText
 10
39.79236461063652
 20
-35.04999999999996
 30
0.0
 40
4.0
  1
φ21
 50
90.0
 41
0.7499999999999998
  7
FDASTYLE0
 72
     5
 11
39.79236461063652
 21
-25.44999999999996
 31
0.0
100
AcDbText
  0
TEXT
  5
F9
330
77
100
AcDbEntity
  8
0
 62
     7
100
AcDbText
 10
37.19236461063652
 20
-24.44999999999996
 30
0.0
 40
2.6
  1
±0.2
 50
90.0
 41
0.7619047619047619
  7
FDASTYLE0
 72
     5
 11
37.19236461063652
 21
-16.12999999999996
 31
0.0
100
AcDbText
  0
ENDBLK
  5
79
330
77
100
AcDbEntity
  8
0
100
AcDbBlockEnd
  0
BLOCK
  5
7F
330
7E
100
AcDbEntity
  8
0
100
AcDbBlockBegin
  2
_OPEN30
 70
     0
 71
     0
 10
0.0
 20
0.0
 30
0.0
  3
_OPEN30
  1

  0
LINE
  5
81
330
7E
100
AcDbEntity
  8
0
  6
BYBLOCK
 62
     0
100
AcDbLine
 10
-1.0
 20
0.267949
 30
0.0
 11
0.0
 21
0.0
 31
0.0
  0
LINE
  5
82
330
7E
100
AcDbEntity
  8
0
  6
BYBLOCK
 62
     0
100
AcDbLine
 10
0.0
 20
0.0
 30
0.0
 11
-1.0
 21
-0.267949
 31
0.0
  0
LINE
  5
83
330
7E
100
AcDbEntity
  8
0
  6
BYBLOCK
 62
     0
100
AcDbLine
 10
0.0
 20
0.0
 30
0.0
 11
-1.0
 21
0.0
 31
0.0
  0
ENDBLK
  5
80
330
7E
100
AcDbEntity
  8
0
100
AcDbBlockEnd
  0
BLOCK
  5
B8
330
B7
100
AcDbEntity
  8
0
100
AcDbBlockBegin
  2
_DOT
 70
     0
 71
     0
 10
0.0
 20
0.0
 30
0.0
  3
_DOT
  1

  0
LWPOLYLINE
  5
BA
330
B7
100
AcDbEntity
  8
0
  6
BYBLOCK
 62
     0
100
AcDbPolyline
 90
        2
 70
     1
 43
0.5
 10
-0.25
 20
0.0
 42
1.0
 10
0.25
 20
0.0
 42
1.0
  0
LINE
  5
BB
330
B7
100
AcDbEntity
  8
0
  6
BYBLOCK
 62
     0
100
AcDbLine
 10
-0.5
 20
0.0
 30
0.0
 11
-1.0
 21
0.0
 31
0.0
  0
ENDBLK
  5
B9
330
B7
100
AcDbEntity
  8
0
100
AcDbBlockEnd
  0
ENDSEC
  0
SECTION
  2
ENTITIES
  0
LINE
  5
FA
330
1F
100
AcDbEntity
  8
0
  6
CONTINUOUS
 62
     3
100
AcDbLine
 10
-3.654233692408113
 20
5.849999999999973
 30
0.0
 11
-3.654233692408113
 21
-15.75000000000004
 31
0.0
  0
LINE
  5
FB
330
1F
100
AcDbEntity
  8
0
  6
CONTINUOUS
 62
     3
100
AcDbLine
 10
-3.654233692408113
 20
-15.75000000000004
 30
0.0
 11
-3.45423369240811
 21
-15.95000000000004
 31
0.0
  0
LINE
  5
FC
330
1F
100
AcDbEntity
  8
0
  6
CONTINUOUS
 62
     3
100
AcDbLine
 10
-3.654233692408113
 20
5.849999999999973
 30
0.0
 11
-3.45423369240811
 21
6.049999999999962
 31
0.0
  0
LINE
  5
FD
330
1F
100
AcDbEntity
  8
0
  6
CONTINUOUS
 62
     3
100
AcDbLine
 10
-3.854233692408101
 20
-10.95000000000002
 30
0.0
 11
-5.654233692408113
 21
-10.95000000000002
 31
0.0
  0
LINE
  5
FE
330
1F
100
AcDbEntity
  8
0
  6
CONTINUOUS
 62
     3
100
AcDbLine
 10
-5.654233692408113
 20
1.049999999999962
 30
0.0
 11
-3.854233692408101
 21
1.04999999999999
 31
0.0
  0
LINE
  5
FF
330
1F
100
AcDbEntity
  8
0
  6
CONTINUOUS
 62
     3
100
AcDbLine
 10
-6.154233692408113
 20
0.4499999999999673
 30
0.0
 11
-5.654233692408113
 21
0.9499999999999673
 31
0.0
  0
LINE
  5
100
330
1F
100
AcDbEntity
  8
0
  6
CONTINUOUS
 62
     3
100
AcDbLine
 10
-6.154233692408113
 20
-10.35000000000003
 30
0.0
 11
-5.654233692408113
 21
-10.85000000000003
 31
0.0
  0
LINE
  5
101
330
1F
100
AcDbEntity
  8
0
  6
CONTINUOUS
 62
     3
100
AcDbLine
 10
-6.154233692408113
 20
0.4499999999999673
 30
0.0
 11
-6.154233692408113
 21
-10.35000000000003
 31
0.0
  0
ARC
  5
102
330
1F
100
AcDbEntity
  8
0
  6
CONTINUOUS
 62
     3
100
AcDbCircle
 10
-3.854233692408101
 20
0.849999999999973
 30
0.0
 40
0.2
100
AcDbArc
 50
0.0
 51
90.00000000000051
  0
ARC
  5
103
330
1F
100
AcDbEntity
  8
0
  6
CONTINUOUS
 62
     3
100
AcDbCircle
 10
-3.854233692408101
 20
-10.75000000000002
 30
0.0
 40
0.2
100
AcDbArc
 50
270.0
 51
360.0
  0
LINE
  5
104
330
1F
100
AcDbEntity
  8
0
  6
CONTINUOUS
 62
     3
100
AcDbLine
 10
-17.65423369240811
 20
-2.950000000000038
 30
0.0
 11
-17.65423369240811
 21
-7.550000000000033
 31
0.0
  0
LINE
  5
105
330
1F
100
AcDbEntity
  8
0
  6
CONTINUOUS
 62
     3
100
AcDbLine
 10
-17.65423369240811
 20
-2.950000000000038
 30
0.0
 11
-9.654233692408113
 21
-2.950000000000038
 31
0.0
  0
LINE
  5
106
330
1F
100
AcDbEntity
  8
0
  6
CONTINUOUS
 62
     3
100
AcDbLine
 10
-9.654233692408113
 20
-2.950000000000038
 30
0.0
 11
-9.654233692408113
 21
-1.950000000000038
 31
0.0
  0
LINE
  5
107
330
1F
100
AcDbEntity
  8
0
  6
CONTINUOUS
 62
     3
100
AcDbLine
 10
-17.65423369240811
 20
-7.550000000000033
 30
0.0
 11
-17.2542336924081
 21
-7.950000000000038
 31
0.0
  0
LINE
  5
108
330
1F
100
AcDbEntity
  8
0
  6
CONTINUOUS
 62
     3
100
AcDbLine
 10
-6.754233692408107
 20
-1.950000000000038
 30
0.0
 11
-6.754233692408107
 21
-7.950000000000038
 31
0.0
  0
LINE
  5
109
330
1F
100
AcDbEntity
  8
0
  6
CONTINUOUS
 62
     3
100
AcDbLine
 10
-17.2542336924081
 20
-7.950000000000038
 30
0.0
 11
-6.754233692408107
 21
-7.950000000000038
 31
0.0
  0
LINE
  5
10A
330
1F
100
AcDbEntity
  8
0
  6
CONTINUOUS
 62
     3
100
AcDbLine
 10
-9.654233692408113
 20
-1.950000000000038
 30
0.0
 11
-6.754233692408107
 21
-1.950000000000038
 31
0.0
  0
LINE
  5
10B
330
1F
100
AcDbEntity
  8
0
  6
CONTINUOUS
 62
     3
100
AcDbLine
 10
-6.754233692408107
 20
0.5499999999999616
 30
0.0
 11
-6.754233692408107
 21
-9.337761960044126
 31
0.0
  0
LINE
  5
10C
330
1F
100
AcDbEntity
  8
0
  6
CONTINUOUS
 62
     3
100
AcDbLine
 10
-6.754233692408107
 20
0.5499999999999616
 30
0.0
 11
-6.154233692408113
 21
0.5499999999999616
 31
0.0
  0
LINE
  5
10D
330
1F
100
AcDbEntity
  8
0
  6
CONTINUOUS
 62
     3
100
AcDbLine
 10
-6.754233692408107
 20
-9.337761960044126
 30
0.0
 11
-6.154233692408113
 21
-9.337761960044126
 31
0.0
  0
LINE
  5
10E
330
1F
100
AcDbEntity
  8
0
  6
CONTINUOUS
 62
     3
100
AcDbLine
 10
-3.45423369240811
 20
6.049999999999962
 30
0.0
 11
15.74577674816097
 21
6.04999999999999
 31
0.0
  0
LINE
  5
10F
330
1F
100
AcDbEntity
  8
0
  6
CONTINUOUS
 62
     3
100
AcDbLine
 10
-3.45423369240811
 20
-15.95000000000004
 30
0.0
 11
19.14577674816101
 21
-15.95000000000004
 31
0.0
  0
LINE
  5
110
330
1F
100
AcDbEntity
  8
0
  6
CONTINUOUS
 62
     3
100
AcDbLine
 10
19.14577674816101
 20
6.049999999999962
 30
0.0
 11
19.245776748161
 21
5.949999999999967
 31
0.0
  0
LINE
  5
111
330
1F
100
AcDbEntity
  8
0
  6
CONTINUOUS
 62
     3
100
AcDbLine
 10
18.94577674816099
 20
6.04999999999999
 30
0.0
 11
19.14577674816101
 21
6.049999999999962
 31
0.0
  0
LINE
  5
112
330
1F
100
AcDbEntity
  8
0
  6
CONTINUOUS
 62
     3
100
AcDbLine
 10
16.39459528987258
 20
-9.57576529393311
 30
0.0
 11
16.52993512527117
 21
-9.428513370501584
 31
0.0
  0
LINE
  5
113
330
1F
100
AcDbEntity
  8
0
  6
CONTINUOUS
 62
     3
100
AcDbLine
 10
18.29695820644945
 20
-11.05259139528464
 30
0.0
 11
18.16161837105086
 21
-11.19984331871617
 31
0.0
  0
LINE
  5
114
330
1F
100
AcDbEntity
  8
0
  6
CONTINUOUS
 62
     3
100
AcDbLine
 10
18.29695820644944
 20
-9.57576529393311
 30
0.0
 11
18.16161837105084
 21
-9.428513370501584
 31
0.0
  0
LINE
  5
115
330
1F
100
AcDbEntity
  8
0
  6
CONTINUOUS
 62
     3
100
AcDbLine
 10
16.39459528987256
 20
-11.05259139528464
 30
0.0
 11
16.52993512527116
 21
-11.19984331871617
 31
0.0
  0
LINE
  5
116
330
1F
100
AcDbEntity
  8
0
  6
CONTINUOUS
 62
     3
100
AcDbLine
 10
18.29695820644945
 20
-11.05259139528464
 30
0.0
 11
17.49355289951438
 21
-10.31417834460887
 31
0.0
  0
LINE
  5
117
330
1F
100
AcDbEntity
  8
0
  6
CONTINUOUS
 62
     3
100
AcDbLine
 10
17.34577674816101
 20
-10.17835668921773
 30
0.0
 11
16.52993512527117
 21
-9.428513370501584
 31
0.0
  0
LINE
  5
118
330
1F
100
AcDbEntity
  8
0
  6
CONTINUOUS
 62
     3
100
AcDbLine
 10
16.39459528987256
 20
-11.05259139528464
 30
0.0
 11
17.19800059680764
 21
-10.31417834460887
 31
0.0
  0
LINE
  5
119
330
1F
100
AcDbEntity
  8
0
  6
CONTINUOUS
 62
     3
100
AcDbLine
 10
17.34577674816101
 20
-10.17835668921773
 30
0.0
 11
18.16161837105084
 21
-9.428513370501584
 31
0.0
  0
LINE
  5
11A
330
1F
100
AcDbEntity
  8
0
  6
CONTINUOUS
 62
     3
100
AcDbLine
 10
18.16161837105086
 20
-11.19984331871617
 30
0.0
 11
17.34577674816101
 21
-10.45000000000002
 31
0.0
  0
LINE
  5
11B
330
1F
100
AcDbEntity
  8
0
  6
CONTINUOUS
 62
     3
100
AcDbLine
 10
17.19800059680764
 20
-10.31417834460887
 30
0.0
 11
16.39459528987258
 21
-9.57576529393311
 31
0.0
  0
LINE
  5
11C
330
1F
100
AcDbEntity
  8
0
  6
CONTINUOUS
 62
     3
100
AcDbLine
 10
16.52993512527116
 20
-11.19984331871617
 30
0.0
 11
17.34365030269945
 21
-10.451954424581
 31
0.0
  0
LINE
  5
11D
330
1F
100
AcDbEntity
  8
0
  6
CONTINUOUS
 62
     3
100
AcDbLine
 10
17.49355289951438
 20
-10.31417834460887
 30
0.0
 11
18.29695820644944
 21
-9.57576529393311
 31
0.0
  0
LINE
  5
11E
330
1F
100
AcDbEntity
  8
0
  6
CONTINUOUS
 62
     3
100
AcDbLine
 10
18.29695419243689
 20
-11.05259139528462
 30
0.0
 11
18.16161435703828
 21
-11.19984331871611
 31
0.0
  0
LINE
  5
11F
330
1F
100
AcDbEntity
  8
0
  6
CONTINUOUS
 62
     3
100
AcDbLine
 10
18.29695419243686
 20
-9.575765293933067
 30
0.0
 11
18.16161435703828
 21
-9.428513370501513
 31
0.0
  0
LINE
  5
120
330
1F
100
AcDbEntity
  8
0
  6
CONTINUOUS
 62
     3
100
AcDbLine
 10
19.245776748161
 20
5.949999999999967
 30
0.0
 11
19.245776748161
 21
-15.85000000000003
 31
0.0
  0
LINE
  5
121
330
1F
100
AcDbEntity
  8
0
  6
CONTINUOUS
 62
     3
100
AcDbLine
 10
19.44577273414846
 20
-4.95000000000001
 30
0.0
 11
19.44577273414846
 21
4.849999999999973
 31
0.0
  0
LINE
  5
122
330
1F
100
AcDbEntity
  8
0
  6
CONTINUOUS
 62
     3
100
AcDbLine
 10
19.44577273414846
 20
-4.95000000000001
 30
0.0
 11
19.44577273414846
 21
-14.95000000000002
 31
0.0
  0
LINE
  5
123
330
1F
100
AcDbEntity
  8
0
  6
CONTINUOUS
 62
     3
100
AcDbLine
 10
19.14577674816101
 20
-15.95000000000004
 30
0.0
 11
19.245776748161
 21
-15.85000000000004
 31
0.0
  0
ARC
  5
124
330
1F
100
AcDbEntity
  8
0
  6
CONTINUOUS
 62
     3
100
AcDbCircle
 10
17.34577674816098
 20
-10.62114455100723
 30
0.0
 40
1.607681059772459
100
AcDbArc
 50
5.603008976722556
 51
174.3969910232775
  0
ARC
  5
125
330
1F
100
AcDbEntity
  8
0
  6
CONTINUOUS
 62
     3
100
AcDbCircle
 10
17.34577674816098
 20
-10.029023417322
 30
0.0
 40
1.603659399821699
100
AcDbArc
 50
190.2425239176312
 51
349.7574760823687
  0
LINE
  5
126
330
1F
100
AcDbEntity
  8
0
  6
CONTINUOUS
 62
     3
100
AcDbLine
 10
19.64577273414845
 20
5.549999999999997
 30
0.0
 11
53.24577896996985
 21
5.54999999999997
 31
0.0
  0
LINE
  5
127
330
1F
100
AcDbEntity
  8
0
  6
CONTINUOUS
 62
     3
100
AcDbLine
 10
19.64577273414846
 20
-15.45000000000001
 30
0.0
 11
53.24577273414828
 21
-15.44999999999993
 31
0.0
  0
LINE
  5
128
330
1F
100
AcDbEntity
  8
0
  6
CONTINUOUS
 62
     3
100
AcDbLine
 10
19.64577273414845
 20
5.549999999999997
 30
0.0
 11
19.44577273414845
 21
5.349999999999994
 31
0.0
  0
LINE
  5
129
330
1F
100
AcDbEntity
  8
0
  6
CONTINUOUS
 62
     3
100
AcDbLine
 10
19.44577273414845
 20
5.349999999999994
 30
0.0
 11
19.44577273414845
 21
-4.95000000000001
 31
0.0
  0
LINE
  5
12A
330
1F
100
AcDbEntity
  8
0
  6
CONTINUOUS
 62
     3
100
AcDbLine
 10
19.44577273414846
 20
-15.24999999999999
 30
0.0
 11
19.44577273414845
 21
-4.95000000000001
 31
0.0
  0
LINE
  5
12B
330
1F
100
AcDbEntity
  8
0
  6
CONTINUOUS
 62
     3
100
AcDbLine
 10
19.64577273414846
 20
-15.45000000000001
 30
0.0
 11
19.44577273414846
 21
-15.24999999999999
 31
0.0
  0
ARC
  5
12C
330
1F
100
AcDbEntity
  8
0
  6
CONTINUOUS
 62
     3
100
AcDbCircle
 10
82.24100452307165
 20
0.3957096655051728
 30
0.0
 40
0.2
100
AcDbArc
 50
39.9999999999989
 51
141.4346850278032
  0
ARC
  5
12D
330
1F
100
AcDbEntity
  8
0
  6
CONTINUOUS
 62
     3
100
AcDbCircle
 10
80.8170115697264
 20
-7.680155682070698
 30
0.0
 40
0.2
100
AcDbArc
 50
198.5653149722097
 51
300.0000000000015
  0
ARC
  5
12E
330
1F
100
AcDbEntity
  8
0
  6
CONTINUOUS
 62
     3
100
AcDbCircle
 10
82.51701156972665
 20
-10.62464205493765
 30
0.0
 40
0.2
100
AcDbArc
 50
120.0000000000015
 51
221.4346850277998
  0
LINE
  5
12F
330
1F
100
AcDbEntity
  8
0
  6
CONTINUOUS
 62
     3
100
AcDbLine
 10
82.87938804486679
 20
-0.0539414246688423
 30
0.0
 11
82.39421341169866
 21
0.5242671874448703
 31
0.0
  0
LINE
  5
130
330
1F
100
AcDbEntity
  8
0
  6
CONTINUOUS
 62
     3
100
AcDbLine
 10
81.57068558469884
 20
-7.475961894328286
 30
0.0
 11
80.91701156973052
 21
-7.853360762832487
 31
0.0
  0
ARC
  5
131
330
1F
100
AcDbEntity
  8
0
  6
CONTINUOUS
 62
     3
100
AcDbCircle
 10
84.84555562967587
 20
2.581187538439785
 30
0.0
 40
0.2
100
AcDbArc
 50
118.5653149722138
 51
219.9999999999985
  0
ARC
  5
132
330
1F
100
AcDbEntity
  8
0
  6
CONTINUOUS
 62
     3
100
AcDbCircle
 10
93.04600421761229
 20
-12.48118753844008
 30
0.0
 40
0.2
100
AcDbArc
 50
298.5653149722092
 51
399.9999999999989
  0
ARC
  5
133
330
1F
100
AcDbEntity
  8
0
  6
CONTINUOUS
 62
     3
100
AcDbCircle
 10
95.65055532421665
 20
-10.29570966550563
 30
0.0
 40
0.2
100
AcDbArc
 50
219.9999999999989
 51
321.4346850277993
  0
ARC
  5
134
330
1F
100
AcDbEntity
  8
0
  6
CONTINUOUS
 62
     3
100
AcDbCircle
 10
97.07454827756224
 20
-2.21984431792945
 30
0.0
 40
0.2
100
AcDbArc
 50
18.56531497220906
 51
120.0000000000005
  0
ARC
  5
135
330
1F
100
AcDbEntity
  8
0
  6
CONTINUOUS
 62
     3
100
AcDbCircle
 10
95.37454827756206
 20
0.7246420549375401
 30
0.0
 40
0.2
100
AcDbArc
 50
300.0000000000016
 51
401.4346850277987
  0
LINE
  5
136
330
1F
100
AcDbEntity
  8
0
  6
CONTINUOUS
 62
     3
100
AcDbLine
 10
95.01217180242473
 20
-9.846058575329217
 30
0.0
 11
95.49734643559286
 21
-10.42426718744293
 31
0.0
  0
LINE
  5
137
330
1F
100
AcDbEntity
  8
0
  6
CONTINUOUS
 62
     3
100
AcDbLine
 10
92.71403847306765
 20
-11.77442140438867
 30
0.0
 11
93.19921310623609
 21
-12.35263001650277
 31
0.0
  0
LINE
  5
138
330
1F
100
AcDbEntity
  8
0
  6
CONTINUOUS
 62
     3
100
AcDbLine
 10
95.01217180242473
 20
-9.846058575329231
 30
0.0
 11
92.71403847306765
 21
-11.77442140438867
 31
0.0
  0
LINE
  5
139
330
1F
100
AcDbEntity
  8
0
  6
CONTINUOUS
 62
     3
100
AcDbLine
 10
87.69577992364431
 20
2.292927584888524
 30
0.0
 11
87.69577992364431
 21
1.400000000073582
 31
0.0
  0
LINE
  5
13A
330
1F
100
AcDbEntity
  8
0
  6
CONTINUOUS
 62
     3
100
AcDbLine
 10
88.94577992364431
 20
1.400000000073582
 30
0.0
 11
87.69577992364431
 21
1.400000000073582
 31
0.0
  0
LINE
  5
13B
330
1F
100
AcDbEntity
  8
0
  6
CONTINUOUS
 62
     3
100
AcDbLine
 10
90.19577992365008
 20
2.292927584887529
 30
0.0
 11
90.19577992365008
 21
1.400000000073582
 31
0.0
  0
LINE
  5
13C
330
1F
100
AcDbEntity
  8
0
  6
CONTINUOUS
 62
     3
100
AcDbLine
 10
88.94577992364431
 20
1.400000000073582
 30
0.0
 11
90.19577992365008
 21
1.400000000073582
 31
0.0
  0
LINE
  5
13D
330
1F
100
AcDbEntity
  8
0
  6
CONTINUOUS
 62
     3
100
AcDbLine
 10
90.19577992365008
 20
-12.19292758489593
 30
0.0
 11
90.19577992365008
 21
-11.30000000007174
 31
0.0
  0
LINE
  5
13E
330
1F
100
AcDbEntity
  8
0
  6
CONTINUOUS
 62
     3
100
AcDbLine
 10
88.94577992365008
 20
-11.30000000007174
 30
0.0
 11
90.19577992365008
 21
-11.30000000007174
 31
0.0
  0
LINE
  5
13F
330
1F
100
AcDbEntity
  8
0
  6
CONTINUOUS
 62
     3
100
AcDbLine
 10
87.69577992364431
 20
-12.19292758489693
 30
0.0
 11
87.69577992364431
 21
-11.30000000007174
 31
0.0
  0
LINE
  5
140
330
1F
100
AcDbEntity
  8
0
  6
CONTINUOUS
 62
     3
100
AcDbLine
 10
88.94577992365008
 20
-11.30000000007174
 30
0.0
 11
87.69577992364431
 21
-11.30000000007174
 31
0.0
  0
LINE
  5
141
330
1F
100
AcDbEntity
  8
0
  6
CONTINUOUS
 62
     3
100
AcDbLine
 10
82.87938804486679
 20
-0.0539414246688423
 30
0.0
 11
85.17752137422387
 21
1.87442140439061
 31
0.0
  0
LINE
  5
142
330
1F
100
AcDbEntity
  8
0
  6
CONTINUOUS
 62
     3
100
AcDbLine
 10
85.17752137422387
 20
1.87442140439061
 30
0.0
 11
84.69234674105543
 21
2.452630016504706
 31
0.0
  0
LINE
  5
143
330
1F
100
AcDbEntity
  8
0
  6
CONTINUOUS
 62
     3
100
AcDbLine
 10
94.82087426259285
 20
0.1740381056836569
 30
0.0
 11
95.47454827756074
 21
0.5514369741875882
 31
0.0
  0
LINE
  5
144
330
1F
100
AcDbEntity
  8
0
  6
CONTINUOUS
 62
     3
100
AcDbLine
 10
94.82087426259288
 20
0.1740381056836426
 30
0.0
 11
96.32087426259268
 21
-2.424038105669787
 31
0.0
  0
LINE
  5
145
330
1F
100
AcDbEntity
  8
0
  6
CONTINUOUS
 62
     3
100
AcDbLine
 10
96.32087426259268
 20
-2.424038105669787
 30
0.0
 11
96.974548277561
 21
-2.046639237165586
 31
0.0
  0
LINE
  5
146
330
1F
100
AcDbEntity
  8
0
  6
CONTINUOUS
 62
     3
100
AcDbLine
 10
83.07068558469867
 20
-10.07403810568172
 30
0.0
 11
82.41701156973078
 21
-10.45143697418566
 31
0.0
  0
LINE
  5
147
330
1F
100
AcDbEntity
  8
0
  6
CONTINUOUS
 62
     3
100
AcDbLine
 10
83.07068558469864
 20
-10.0740381056817
 30
0.0
 11
81.57068558469884
 21
-7.475961894328286
 31
0.0
  0
ARC
  5
148
330
1F
100
AcDbEntity
  8
0
  6
CONTINUOUS
 62
     3
100
AcDbCircle
 10
88.94577992364431
 20
-4.950000000004202
 30
0.0
 40
7.35
100
AcDbArc
 50
99.79177432463465
 51
260.2082256753654
  0
ARC
  5
149
330
1F
100
AcDbEntity
  8
0
  6
CONTINUOUS
 62
     3
100
AcDbCircle
 10
88.94577992364431
 20
-4.950000000004202
 30
0.0
 40
7.35
100
AcDbArc
 50
279.7917743246803
 51
440.2082256753197
  0
ARC
  5
14A
330
1F
100
AcDbEntity
  8
0
  6
CONTINUOUS
 62
     3
100
AcDbCircle
 10
90.24577992364432
 20
1.200000000078653
 30
0.0
 40
0.5
100
AcDbArc
 50
270.0
 51
360.0
  0
ARC
  5
14B
330
1F
100
AcDbEntity
  8
0
  6
CONTINUOUS
 62
     3
100
AcDbCircle
 10
87.64577992364433
 20
1.200000000078653
 30
0.0
 40
0.5
100
AcDbArc
 50
180.0
 51
270.0
  0
LINE
  5
14C
330
1F
100
AcDbEntity
  8
0
  6
CONTINUOUS
 62
     3
100
AcDbLine
 10
87.64577992364433
 20
0.7000000000786528
 30
0.0
 11
90.24577992364432
 21
0.7000000000786528
 31
0.0
  0
ARC
  5
14D
330
1F
100
AcDbEntity
  8
0
  6
CONTINUOUS
 62
     3
100
AcDbCircle
 10
90.24577992364432
 20
-11.10000000006857
 30
0.0
 40
0.5
100
AcDbArc
 50
0.0
 51
90.0
  0
LINE
  5
14E
330
1F
100
AcDbEntity
  8
0
  6
CONTINUOUS
 62
     3
100
AcDbLine
 10
87.64577992364433
 20
-10.60000000006857
 30
0.0
 11
90.24577992364432
 21
-10.60000000006857
 31
0.0
  0
ARC
  5
14F
330
1F
100
AcDbEntity
  8
0
  6
CONTINUOUS
 62
     3
100
AcDbCircle
 10
87.64577992364433
 20
-11.10000000006857
 30
0.0
 40
0.5
100
AcDbArc
 50
90.0
 51
180.0
  0
CIRCLE
  5
150
330
1F
100
AcDbEntity
  8
0
  6
CONTINUOUS
 62
     3
100
AcDbCircle
 10
88.94577992364431
 20
-4.950000000004202
 30
0.0
 40
11.0
  0
CIRCLE
  5
151
330
1F
100
AcDbEntity
  8
0
  6
CONTINUOUS
 62
     3
100
AcDbCircle
 10
88.94577992364431
 20
-4.950000000004202
 30
0.0
 40
10.5
  0
CIRCLE
  5
152
330
1F
100
AcDbEntity
  8
0
  6
CONTINUOUS
 62
     3
100
AcDbCircle
 10
-78.65423369240811
 20
-4.949999999999996
 30
0.0
 40
11.0
  0
CIRCLE
  5
153
330
1F
100
AcDbEntity
  8
0
  6
CONTINUOUS
 62
     3
100
AcDbCircle
 10
-78.65423369240811
 20
-4.949999999999996
 30
0.0
 40
6.0
  0
LINE
  5
154
330
1F
100
AcDbEntity
  8
0
  6
CONTINUOUS
 62
     3
100
AcDbLine
 10
-80.89030166990789
 20
-2.949999999999996
 30
0.0
 11
-76.41816571490834
 21
-2.949999999999996
 31
0.0
  0
CIRCLE
  5
155
330
1F
100
AcDbEntity
  8
0
  6
CONTINUOUS
 62
     3
100
AcDbCircle
 10
-78.65423369240811
 20
-4.949999999999996
 30
0.0
 40
3.0
  0
ARC
  5
156
330
1F
100
AcDbEntity
  8
0
  6
CONTINUOUS
 62
     3
100
AcDbCircle
 10
-78.65423369240811
 20
-4.949999999999996
 30
0.0
 40
5.399999999999995
100
AcDbArc
 50
234.2411941295762
 51
305.7588058704238
  0
CIRCLE
  5
157
330
1F
100
AcDbEntity
  8
0
  6
CONTINUOUS
 62
     3
100
AcDbCircle
 10
-78.65423369240811
 20
4.050000000000004
 30
0.0
 40
1.230000000000004
  0
CIRCLE
  5
158
330
1F
100
AcDbEntity
  8
0
  6
CONTINUOUS
 62
     3
100
AcDbCircle
 10
-69.65423369240808
 20
-4.949999999999996
 30
0.0
 40
1.230000000000004
  0
CIRCLE
  5
159
330
1F
100
AcDbEntity
  8
0
  6
CONTINUOUS
 62
     3
100
AcDbCircle
 10
-78.65423369240811
 20
-13.95
 30
0.0
 40
1.230000000000004
  0
CIRCLE
  5
15A
330
1F
100
AcDbEntity
  8
0
  6
CONTINUOUS
 62
     3
100
AcDbCircle
 10
-87.65423369240811
 20
-4.949999999999996
 30
0.0
 40
1.230000000000004
  0
LINE
  5
15B
330
1F
100
AcDbEntity
  8
0
  6
CONTINUOUS
 62
     3
100
AcDbLine
 10
-76.33588693433318
 20
-6.854013736642521
 30
0.0
 11
-75.72994825516354
 21
-9.115407673574858
 31
0.0
  0
LINE
  5
15C
330
1F
100
AcDbEntity
  8
0
  6
CONTINUOUS
 62
     3
100
AcDbLine
 10
-80.97258045048305
 20
-6.854013736642521
 30
0.0
 11
-81.57851912965275
 21
-9.115407673574858
 31
0.0
  0
ARC
  5
15D
330
1F
100
AcDbEntity
  8
0
  6
CONTINUOUS
 62
     3
100
AcDbCircle
 10
-75.44017050727682
 20
-9.037761960044101
 30
0.0
 40
0.3
100
AcDbArc
 50
195.0
 51
308.1767224300396
  0
ARC
  5
15E
330
1F
100
AcDbEntity
  8
0
  6
CONTINUOUS
 62
     3
100
AcDbCircle
 10
-78.65423369240811
 20
-4.949999999999996
 30
0.0
 40
5.5
100
AcDbArc
 50
308.1767224300396
 51
591.8232775699603
  0
ARC
  5
15F
330
1F
100
AcDbEntity
  8
0
  6
CONTINUOUS
 62
     3
100
AcDbCircle
 10
-81.86829687753946
 20
-9.037761960044101
 30
0.0
 40
0.3
100
AcDbArc
 50
231.8232775699604
 51
345.0
  0
LINE
  5
160
330
1F
100
AcDbEntity
  8
0
  6
CONTINUOUS
 62
     3
100
AcDbLine
 10
-75.65423369240811
 20
-4.949999999999996
 30
0.0
 11
-74.66549955737229
 21
-4.949999999999996
 31
0.0
  0
LINE
  5
161
330
1F
100
AcDbEntity
  8
0
  6
CONTINUOUS
 62
     3
100
AcDbLine
 10
-81.65423369240811
 20
-4.949999999999996
 30
0.0
 11
-82.64296782744394
 21
-4.949999999999996
 31
0.0
  0
ARC
  5
162
330
1F
100
AcDbEntity
  8
0
  6
CONTINUOUS
 62
     3
100
AcDbCircle
 10
-74.66549955737229
 20
-4.649999999999984
 30
0.0
 40
0.3
100
AcDbArc
 50
270.0
 51
364.3012223046704
  0
ARC
  5
163
330
1F
100
AcDbEntity
  8
0
  6
CONTINUOUS
 62
     3
100
AcDbCircle
 10
-82.64296782744394
 20
-4.649999999999984
 30
0.0
 40
0.3
100
AcDbArc
 50
175.6987776953297
 51
270.0
  0
ARC
  5
164
330
1F
100
AcDbEntity
  8
0
  6
CONTINUOUS
 62
     3
100
AcDbCircle
 10
-78.65423369240811
 20
-4.949999999999996
 30
0.0
 40
4.3
100
AcDbArc
 50
4.301222304670368
 51
70.35706914084175
  0
ARC
  5
165
330
1F
100
AcDbEntity
  8
0
  6
CONTINUOUS
 62
     3
100
AcDbCircle
 10
-78.65423369240811
 20
-4.949999999999996
 30
0.0
 40
4.3
100
AcDbArc
 50
109.6429308591583
 51
175.6987776953297
  0
ARC
  5
166
330
1F
100
AcDbEntity
  8
0
  6
CONTINUOUS
 62
     3
100
AcDbCircle
 10
-77.30960431285244
 20
-1.182776641658258
 30
0.0
 40
0.3
100
AcDbArc
 50
70.35706914084175
 51
164.6582914455121
  0
ARC
  5
167
330
1F
100
AcDbEntity
  8
0
  6
CONTINUOUS
 62
     3
100
AcDbCircle
 10
-79.99886307196384
 20
-1.182776641658258
 30
0.0
 40
0.3
100
AcDbArc
 50
15.34170855448794
 51
109.6429308591583
  0
LINE
  5
168
330
1F
100
AcDbEntity
  8
0
  6
CONTINUOUS
 62
     3
100
AcDbLine
 10
-77.86050829908878
 20
-2.056904771702115
 30
0.0
 11
-77.59891383568224
 21
-1.103404102326302
 31
0.0
  0
LINE
  5
169
330
1F
100
AcDbEntity
  8
0
  6
CONTINUOUS
 62
     3
100
AcDbLine
 10
-79.4479590857275
 20
-2.056904771702115
 30
0.0
 11
-79.70955354913404
 21
-1.103404102326302
 31
0.0
  0
LINE
  5
16A
330
1F
100
AcDbEntity
  8
0
  6
CONTINUOUS
 62
     3
100
AcDbLine
 10
54.24577254341342
 20
3.825000000013777
 30
0.0
 11
53.44577273414869
 21
3.825000000013763
 31
0.0
  0
LINE
  5
16B
330
1F
100
AcDbEntity
  8
0
  6
CONTINUOUS
 62
     3
100
AcDbLine
 10
54.24576630759231
 20
-13.72499999998722
 30
0.0
 11
53.44577273414824
 21
-13.72499999998722
 31
0.0
  0
LINE
  5
16C
330
1F
100
AcDbEntity
  8
0
  6
CENTER
 62
     9
100
AcDbLine
 10
-18.65423369240811
 20
-4.95000000000001
 30
0.0
 11
57.24576630759196
 21
-4.95000000000001
 31
0.0
  0
CIRCLE
  5
16D
330
1F
100
AcDbEntity
  8
0
  6
CENTER
 62
     9
100
AcDbCircle
 10
-78.65423369240811
 20
-4.949999999999996
 30
0.0
 40
9.0
  0
LINE
  5
16E
330
1F
100
AcDbEntity
  8
0
  6
DIVIDE
 62
     9
100
AcDbLine
 10
28.79236461063652
 20
5.549999999999997
 30
0.0
 11
28.79236461063652
 21
-15.45000000000001
 31
0.0
  0
LINE
  5
16F
330
1F
100
AcDbEntity
  8
0
  6
DIVIDE
 62
     9
100
AcDbLine
 10
44.79236461063652
 20
5.549999999999997
 30
0.0
 11
44.79236461063652
 21
-15.45000000000001
 31
0.0
  0
LINE
  5
170
330
1F
100
AcDbEntity
  8
0
  6
CONTINUOUS
 62
     9
100
AcDbLine
 10
85.19577992364431
 20
-8.699999999998717
 30
0.0
 11
84.22103505225273
 21
-8.699999999998717
 31
0.0
  0
LINE
  5
171
330
1F
100
AcDbEntity
  8
0
  6
CONTINUOUS
 62
     9
100
AcDbLine
 10
85.19577992364431
 20
-9.674744871390296
 30
0.0
 11
85.19577992364431
 21
-8.699999999998717
 31
0.0
  0
LINE
  5
172
330
1F
100
AcDbEntity
  8
0
  6
CONTINUOUS
 62
     9
100
AcDbLine
 10
85.19577992364431
 20
-8.199999999998717
 30
0.0
 11
85.19577992364431
 21
-7.225255128607138
 31
0.0
  0
LINE
  5
173
330
1F
100
AcDbEntity
  8
0
  6
CONTINUOUS
 62
     9
100
AcDbLine
 10
85.69577992364431
 20
-7.225255128607138
 30
0.0
 11
85.69577992364431
 21
-8.199999999998717
 31
0.0
  0
LINE
  5
174
330
1F
100
AcDbEntity
  8
0
  6
CONTINUOUS
 62
     9
100
AcDbLine
 10
85.69577992364431
 20
-8.699999999998717
 30
0.0
 11
85.69577992364431
 21
-9.674744871390296
 31
0.0
  0
LINE
  5
175
330
1F
100
AcDbEntity
  8
0
  6
CONTINUOUS
 62
     9
100
AcDbLine
 10
84.22103505225273
 20
-8.199999999998717
 30
0.0
 11
85.19577992364431
 21
-8.199999999998717
 31
0.0
  0
LINE
  5
176
330
1F
100
AcDbEntity
  8
0
  6
CONTINUOUS
 62
     9
100
AcDbLine
 10
86.67052479503589
 20
-8.699999999998717
 30
0.0
 11
85.69577992364431
 21
-8.699999999998717
 31
0.0
  0
LINE
  5
177
330
1F
100
AcDbEntity
  8
0
  6
CONTINUOUS
 62
     9
100
AcDbLine
 10
85.69577992364431
 20
-8.199999999998717
 30
0.0
 11
86.67052479503589
 21
-8.199999999998717
 31
0.0
  0
CIRCLE
  5
178
330
1F
100
AcDbEntity
  8
0
  6
CONTINUOUS
 62
     9
100
AcDbCircle
 10
85.44577992364431
 20
-8.449999999998717
 30
0.0
 40
1.25
  0
ARC
  5
179
330
1F
100
AcDbEntity
  8
LAYER0192
  6
CONTINUOUS
 62
     3
100
AcDbCircle
 10
17.34577674816098
 20
16.93301428833463
 30
0.0
 40
11.00000000000438
100
AcDbArc
 50
261.6363982109767
 51
278.3636017890233
  0
LINE
  5
17A
330
1F
100
AcDbEntity
  8
LAYER0048
  6
CONTINUOUS
 62
     3
100
AcDbLine
 10
19.245776748161
 20
4.849999999999973
 30
0.0
 11
19.44577273414846
 21
4.849999999999973
 31
0.0
  0
LINE
  5
17B
330
1F
100
AcDbEntity
  8
LAYER0048
  6
CONTINUOUS
 62
     3
100
AcDbLine
 10
19.245776748161
 20
-14.95000000000002
 30
0.0
 11
19.44577273414846
 21
-14.95000000000002
 31
0.0
  0
LINE
  5
17C
330
1F
100
AcDbEntity
  8
0
  6
CONTINUOUS
 62
     3
100
AcDbLine
 10
19.44577273414845
 20
2.324999999999996
 30
0.0
 11
19.44577273414845
 21
-12.22500000000002
 31
0.0
  0
LINE
  5
17D
330
1F
100
AcDbEntity
  8
0
  6
CONTINUOUS
 62
     3
100
AcDbLine
 10
90.0457799236472
 20
1.750000089529699
 30
0.0
 11
90.0457799236472
 21
2.050000000073773
 31
0.0
  0
LINE
  5
17E
330
1F
100
AcDbEntity
  8
0
  6
CONTINUOUS
 62
     3
100
AcDbLine
 10
87.84577992364721
 20
1.750000089529699
 30
0.0
 11
87.84577992364719
 21
2.050000000073773
 31
0.0
  0
LINE
  5
17F
330
1F
100
AcDbEntity
  8
0
  6
CONTINUOUS
 62
     3
100
AcDbLine
 10
87.84577992364719
 20
2.050000000073773
 30
0.0
 11
90.0457799236472
 21
2.050000000073773
 31
0.0
  0
LINE
  5
180
330
1F
100
AcDbEntity
  8
0
  6
CONTINUOUS
 62
     3
100
AcDbLine
 10
87.84577992364721
 20
1.750000089529699
 30
0.0
 11
90.0457799236472
 21
1.750000089529699
 31
0.0
  0
LINE
  5
181
330
1F
100
AcDbEntity
  8
0
  6
CONTINUOUS
 62
     3
100
AcDbLine
 10
90.0457799236472
 20
-11.65000008952972
 30
0.0
 11
90.0457799236472
 21
-11.95000000007192
 31
0.0
  0
LINE
  5
182
330
1F
100
AcDbEntity
  8
0
  6
CONTINUOUS
 62
     3
100
AcDbLine
 10
87.84577992364721
 20
-11.65000008952972
 30
0.0
 11
90.0457799236472
 21
-11.65000008952972
 31
0.0
  0
LINE
  5
183
330
1F
100
AcDbEntity
  8
0
  6
CONTINUOUS
 62
     3
100
AcDbLine
 10
87.84577992364721
 20
-11.65000008952972
 30
0.0
 11
87.84577992364719
 21
-11.95000000007192
 31
0.0
  0
LINE
  5
184
330
1F
100
AcDbEntity
  8
0
  6
CONTINUOUS
 62
     3
100
AcDbLine
 10
87.84577992364719
 20
-11.95000000007192
 30
0.0
 11
90.0457799236472
 21
-11.95000000007192
 31
0.0
  0
LINE
  5
185
330
1F
100
AcDbEntity
  8
LAYER0008
  6
CONTINUOUS
 62
     3
100
AcDbLine
 10
90.74577992364432
 20
1.200000000078681
 30
0.0
 11
90.74577992364432
 21
1.342853089028104
 31
0.0
  0
ARC
  5
186
330
1F
100
AcDbEntity
  8
LAYER0008
  6
CONTINUOUS
 62
     3
100
AcDbCircle
 10
91.24577992364432
 20
1.342853089028104
 30
0.0
 40
0.5
100
AcDbArc
 50
69.92294559915118
 51
180.0
  0
LINE
  5
187
330
1F
100
AcDbEntity
  8
LAYER0008
  6
CONTINUOUS
 62
     3
100
AcDbLine
 10
87.14577992364433
 20
1.342853089026001
 30
0.0
 11
87.14577992364433
 21
1.200000000078681
 31
0.0
  0
ARC
  5
188
330
1F
100
AcDbEntity
  8
LAYER0008
  6
CONTINUOUS
 62
     3
100
AcDbCircle
 10
86.64577992364433
 20
1.342853089026001
 30
0.0
 40
0.5
100
AcDbArc
 50
0.0
 51
110.077054400901
  0
LINE
  5
189
330
1F
100
AcDbEntity
  8
LAYER0008
  6
CONTINUOUS
 62
     3
100
AcDbLine
 10
90.74577992364432
 20
-11.1000000000686
 30
0.0
 11
90.74577992364432
 21
-11.24285308901802
 31
0.0
  0
ARC
  5
18A
330
1F
100
AcDbEntity
  8
LAYER0008
  6
CONTINUOUS
 62
     3
100
AcDbCircle
 10
91.24577992364432
 20
-11.24285308901802
 30
0.0
 40
0.5
100
AcDbArc
 50
180.0
 51
290.0770544008488
  0
LINE
  5
18B
330
1F
100
AcDbEntity
  8
LAYER0008
  6
CONTINUOUS
 62
     3
100
AcDbLine
 10
87.14577992364433
 20
-11.24285308901592
 30
0.0
 11
87.14577992364433
 21
-11.1000000000686
 31
0.0
  0
ARC
  5
18C
330
1F
100
AcDbEntity
  8
LAYER0008
  6
CONTINUOUS
 62
     3
100
AcDbCircle
 10
86.64577992364433
 20
-11.24285308901592
 30
0.0
 40
0.5
100
AcDbArc
 50
249.922945599099
 51
360.0
  0
CIRCLE
  5
18D
330
1F
100
AcDbEntity
  8
LAYER0013
  6
CONTINUOUS
 62
     3
100
AcDbCircle
 10
88.94577992364721
 20
-4.949999999993871
 30
0.0
 40
8.774999999997114
  0
LINE
  5
18E
330
1F
100
AcDbEntity
  8
LAYER0013
  6
CONTINUOUS
 62
     3
100
AcDbLine
 10
55.04576630759197
 20
-9.286664488513534
 30
0.0
 11
55.54576630759198
 21
-9.286664488513534
 31
0.0
  0
LINE
  5
18F
330
1F
100
AcDbEntity
  8
LAYER0013
  6
CONTINUOUS
 62
     3
100
AcDbLine
 10
55.04576630759197
 20
-10.69746388540581
 30
0.0
 11
55.54576630759198
 21
-10.69746388540581
 31
0.0
  0
LINE
  5
190
330
1F
100
AcDbEntity
  8
LAYER0013
  6
CONTINUOUS
 62
     3
100
AcDbLine
 10
55.54576630759198
 20
-9.286664488513534
 30
0.0
 11
55.54576630759198
 21
-10.69746388540581
 31
0.0
  0
ARC
  5
191
330
1F
100
AcDbEntity
  8
LAYER0013
  6
CONTINUOUS
 62
     3
100
AcDbCircle
 10
55.64576630759197
 20
1.24285308902093
 30
0.0
 40
0.6
100
AcDbArc
 50
0.0
 51
90.0
  0
LINE
  5
192
330
1F
100
AcDbEntity
  8
LAYER0013
  6
CONTINUOUS
 62
     3
100
AcDbLine
 10
55.64576630759197
 20
1.842853089020938
 30
0.0
 11
55.04576630759197
 21
1.842853089020938
 31
0.0
  0
LINE
  5
193
330
1F
100
AcDbEntity
  8
LAYER0013
  6
CONTINUOUS
 62
     3
100
AcDbLine
 10
56.24576630759196
 20
1.24285308902093
 30
0.0
 11
56.24576630759196
 21
-11.14285308902097
 31
0.0
  0
LINE
  5
194
330
1F
100
AcDbEntity
  8
LAYER0013
  6
CONTINUOUS
 62
     3
100
AcDbLine
 10
55.04576630759197
 20
-9.286664488513534
 30
0.0
 11
55.54576630759198
 21
-9.286664488513534
 31
0.0
  0
LINE
  5
195
330
1F
100
AcDbEntity
  8
LAYER0013
  6
CONTINUOUS
 62
     3
100
AcDbLine
 10
55.04576630759197
 20
-10.69746388540581
 30
0.0
 11
55.54576630759198
 21
-10.69746388540581
 31
0.0
  0
LINE
  5
196
330
1F
100
AcDbEntity
  8
LAYER0013
  6
CONTINUOUS
 62
     3
100
AcDbLine
 10
55.54576630759198
 20
-9.286664488513534
 30
0.0
 11
55.54576630759198
 21
-10.69746388540581
 31
0.0
  0
LINE
  5
197
330
1F
100
AcDbEntity
  8
LAYER0013
  6
CONTINUOUS
 62
     3
100
AcDbLine
 10
55.64576630759197
 20
-11.74285308902098
 30
0.0
 11
55.04576630759197
 21
-11.74285308902098
 31
0.0
  0
ARC
  5
198
330
1F
100
AcDbEntity
  8
LAYER0013
  6
CONTINUOUS
 62
     3
100
AcDbCircle
 10
55.64576630759197
 20
-11.14285308902097
 30
0.0
 40
0.6
100
AcDbArc
 50
270.0
 51
360.0
  0
ARC
  5
199
330
1F
100
AcDbEntity
  8
LAYER0013
  6
CONTINUOUS
 62
     3
100
AcDbCircle
 10
55.64576630759197
 20
1.24285308902093
 30
0.0
 40
0.6
100
AcDbArc
 50
0.0
 51
90.0
  0
LINE
  5
19A
330
1F
100
AcDbEntity
  8
LAYER0013
  6
CONTINUOUS
 62
     3
100
AcDbLine
 10
55.04576630759189
 20
2.294202590308917
 30
0.0
 11
55.04576630759217
 21
-11.84999999999894
 31
0.0
  0
LINE
  5
19B
330
1F
100
AcDbEntity
  8
LAYER0013
  6
CONTINUOUS
 62
     3
100
AcDbLine
 10
55.64576630759197
 20
1.842853089020938
 30
0.0
 11
55.04576630759197
 21
1.842853089020938
 31
0.0
  0
LINE
  5
19C
330
1F
100
AcDbEntity
  8
LAYER0013
  6
CONTINUOUS
 62
     3
100
AcDbLine
 10
56.24576630759196
 20
1.24285308902093
 30
0.0
 11
56.24576630759196
 21
-11.14285308902097
 31
0.0
  0
LINE
  5
19D
330
1F
100
AcDbEntity
  8
LAYER0013
  6
CONTINUOUS
 62
     3
100
AcDbLine
 10
55.64576630759197
 20
-11.74285308902097
 30
0.0
 11
55.04576630759197
 21
-11.74285308902097
 31
0.0
  0
ARC
  5
19E
330
1F
100
AcDbEntity
  8
LAYER0013
  6
CONTINUOUS
 62
     3
100
AcDbCircle
 10
55.64576630759197
 20
-11.14285308902097
 30
0.0
 40
0.6
100
AcDbArc
 50
270.0
 51
360.0
  0
LINE
  5
19F
330
1F
100
AcDbEntity
  8
LAYER0013
  6
CONTINUOUS
 62
     3
100
AcDbLine
 10
55.04576630759197
 20
-9.286664488513534
 30
0.0
 11
55.54576630759197
 21
-9.286664488513534
 31
0.0
  0
LINE
  5
1A0
330
1F
100
AcDbEntity
  8
LAYER0013
  6
CONTINUOUS
 62
     3
100
AcDbLine
 10
55.04576630759197
 20
-10.69746388540581
 30
0.0
 11
55.54576630759197
 21
-10.69746388540581
 31
0.0
  0
LINE
  5
1A1
330
1F
100
AcDbEntity
  8
LAYER0013
  6
CONTINUOUS
 62
     3
100
AcDbLine
 10
55.54576630759197
 20
-9.286664488513534
 30
0.0
 11
55.54576630759197
 21
-10.69746388540581
 31
0.0
  0
LINE
  5
1A2
330
1F
100
AcDbEntity
  8
LAYER0013
  6
CONTINUOUS
 62
     3
100
AcDbLine
 10
55.04576630759197
 20
-4.950000000000014
 30
0.0
 11
55.04576630759197
 21
-11.74285308902097
 31
0.0
  0
LINE
  5
1A3
330
1F
100
AcDbEntity
  8
LAYER0013
  6
CONTINUOUS
 62
     3
100
AcDbLine
 10
55.04576630759226
 20
-12.14999999999891
 30
0.0
 11
55.04576630759217
 21
-11.84999999999894
 31
0.0
  0
LINE
  5
1A4
330
1F
100
AcDbEntity
  8
LAYER0013
  6
CONTINUOUS
 62
     3
100
AcDbLine
 10
54.44577281603804
 20
-12.29999763111929
 30
0.0
 11
55.04576630759189
 21
-12.19420259030887
 31
0.0
  0
INSERT
  5
1A5
330
1F
100
AcDbEntity
  8
0
  6
CONTINUOUS
100
AcDbBlockReference
  2
DA_IMAGEDIMGROUP_1
 10
0.0
 20
0.0
 30
0.0
  0
INSERT
  5
1A6
330
1F
100
AcDbEntity
  8
0
  6
CONTINUOUS
100
AcDbBlockReference
  2
DA_IMAGEDIMGROUP_2
 10
0.0
 20
0.0
 30
0.0
  0
INSERT
  5
1A7
330
1F
100
AcDbEntity
  8
0
  6
CONTINUOUS
100
AcDbBlockReference
  2
DA_IMAGEDIMGROUP_3
 10
0.0
 20
0.0
 30
0.0
  0
INSERT
  5
1A8
330
1F
100
AcDbEntity
  8
0
  6
CONTINUOUS
100
AcDbBlockReference
  2
DA_IMAGEDIMGROUP_4
 10
0.0
 20
0.0
 30
0.0
  0
INSERT
  5
1A9
330
1F
100
AcDbEntity
  8
0
  6
CONTINUOUS
100
AcDbBlockReference
  2
DA_IMAGEDIMGROUP_5
 10
0.0
 20
0.0
 30
0.0
  0
INSERT
  5
1AA
330
1F
100
AcDbEntity
  8
0
  6
CONTINUOUS
100
AcDbBlockReference
  2
DA_IMAGEDIMGROUP_6
 10
0.0
 20
0.0
 30
0.0
  0
INSERT
  5
1AB
330
1F
100
AcDbEntity
  8
0
  6
CONTINUOUS
100
AcDbBlockReference
  2
DA_IMAGEDIMGROUP_7
 10
0.0
 20
0.0
 30
0.0
  0
INSERT
  5
1AC
330
1F
100
AcDbEntity
  8
0
  6
CONTINUOUS
100
AcDbBlockReference
  2
DA_IMAGEDIMGROUP_8
 10
0.0
 20
0.0
 30
0.0
  0
INSERT
  5
1AD
330
1F
100
AcDbEntity
  8
0
  6
CONTINUOUS
100
AcDbBlockReference
  2
DA_IMAGEDIMGROUP_9
 10
0.0
 20
0.0
 30
0.0
  0
INSERT
  5
1AE
330
1F
100
AcDbEntity
  8
0
  6
CONTINUOUS
100
AcDbBlockReference
  2
DC_GROUP_1
 10
0.0
 20
0.0
 30
0.0
  0
INSERT
  5
1AF
330
1F
100
AcDbEntity
  8
0
  6
CONTINUOUS
100
AcDbBlockReference
  2
DC_GROUP_2
 10
0.0
 20
0.0
 30
0.0
  0
INSERT
  5
1B0
330
1F
100
AcDbEntity
  8
0
  6
CONTINUOUS
100
AcDbBlockReference
  2
DA_IMAGEDIMGROUP_10
 10
0.0
 20
0.0
 30
0.0
  0
INSERT
  5
1B1
330
1F
100
AcDbEntity
  8
0
  6
CONTINUOUS
100
AcDbBlockReference
  2
DA_IMAGEDIMGROUP_11
 10
0.0
 20
0.0
 30
0.0
  0
INSERT
  5
1B2
330
1F
100
AcDbEntity
  8
0
  6
CONTINUOUS
100
AcDbBlockReference
  2
DC_GROUP_3
 10
0.0
 20
0.0
 30
0.0
  0
INSERT
  5
1B3
330
1F
100
AcDbEntity
  8
0
  6
CONTINUOUS
100
AcDbBlockReference
  2
DA_IMAGEDIMGROUP_12
 10
0.0
 20
0.0
 30
0.0
  0
CIRCLE
  5
1B4
330
1F
100
AcDbEntity
  8
0
  6
CONTINUOUS
 62
     9
100
AcDbCircle
 10
-78.65423369240811
 20
4.050000000000004
 30
0.0
 40
1.5
  0
CIRCLE
  5
1B5
330
1F
100
AcDbEntity
  8
0
  6
CONTINUOUS
 62
     9
100
AcDbCircle
 10
-69.65423369240808
 20
-4.949999999999996
 30
0.0
 40
1.5
  0
CIRCLE
  5
1B6
330
1F
100
AcDbEntity
  8
0
  6
CONTINUOUS
 62
     9
100
AcDbCircle
 10
-78.65423369240811
 20
-13.95
 30
0.0
 40
1.5
  0
CIRCLE
  5
1B7
330
1F
100
AcDbEntity
  8
0
  6
CONTINUOUS
 62
     9
100
AcDbCircle
 10
-87.65423369240811
 20
-4.949999999999996
 30
0.0
 40
1.5
  0
LINE
  5
1B8
330
1F
100
AcDbEntity
  8
0
  6
CONTINUOUS
 62
     9
100
AcDbLine
 10
58.9457799236443
 20
-11.65000008952972
 30
0.0
 11
68.9457799236443
 21
-11.65000008952972
 31
0.0
  0
LINE
  5
1B9
330
1F
100
AcDbEntity
  8
0
  6
CONTINUOUS
 62
     9
100
AcDbLine
 10
58.94577992364431
 20
1.750000089529681
 30
0.0
 11
68.9457799236443
 21
1.750000089529681
 31
0.0
  0
LINE
  5
1BA
330
1F
100
AcDbEntity
  8
0
  6
CENTER
 62
     9
100
AcDbLine
 10
-78.65423369240811
 20
7.050000000000004
 30
0.0
 11
-78.65423369240811
 21
-16.95
 31
0.0
  0
LINE
  5
1BB
330
1F
100
AcDbEntity
  8
0
  6
CENTER
 62
     9
100
AcDbLine
 10
-66.65423369240811
 20
-4.949999999999996
 30
0.0
 11
-90.65423369240811
 21
-4.949999999999996
 31
0.0
  0
LINE
  5
1BC
330
1F
100
AcDbEntity
  8
0
  6
CENTER
 62
     9
100
AcDbLine
 10
100.9457799236443
 20
-4.950000000004202
 30
0.0
 11
76.94577992364431
 21
-4.950000000004202
 31
0.0
  0
LINE
  5
1BD
330
1F
100
AcDbEntity
  8
0
  6
CENTER
 62
     9
100
AcDbLine
 10
88.94577992364431
 20
7.049999999995798
 30
0.0
 11
88.94577992364431
 21
-16.9500000000042
 31
0.0
  0
LINE
  5
1BE
330
1F
100
AcDbEntity
  8
0
  6
CONTINUOUS
 62
     9
100
AcDbLine
 10
67.9457799236443
 20
-11.65000008952972
 30
0.0
 11
67.9457799236443
 21
1.750000089529681
 31
0.0
  0
INSERT
  5
1BF
330
1F
100
AcDbEntity
  8
0
 62
     9
100
AcDbBlockReference
  2
_OPEN30
 10
67.9457799236443
 20
-11.65000008952972
 30
0.0
 41
3.000002787824364
 42
2.999989273978464
 50
270.0
  0
INSERT
  5
1C0
330
1F
100
AcDbEntity
  8
0
 62
     9
100
AcDbBlockReference
  2
_OPEN30
 10
67.9457799236443
 20
1.750000089529681
 30
0.0
 41
3.000002787824364
 42
2.999989273978464
 50
90.0
  0
LINE
  5
1C1
330
1F
100
AcDbEntity
  8
LAYER0007
  6
CONTINUOUS
 62
     3
100
AcDbLine
 10
57.94577992364431
 20
2.050000089529679
 30
0.0
 11
57.94577992364431
 21
1.750000089529681
 31
0.0
  0
LINE
  5
1C2
330
1F
100
AcDbEntity
  8
LAYER0007
  6
CONTINUOUS
 62
     3
100
AcDbLine
 10
57.94577992364431
 20
-11.95000008952972
 30
0.0
 11
57.94577992364431
 21
-11.65000008952972
 31
0.0
  0
LINE
  5
1C3
330
1F
100
AcDbEntity
  8
LAYER0007
  6
CONTINUOUS
 62
     3
100
AcDbLine
 10
57.9457799236443
 20
2.050000089529679
 30
0.0
 11
57.9457799236443
 21
1.750000089529696
 31
0.0
  0
LINE
  5
1C4
330
1F
100
AcDbEntity
  8
LAYER0007
  6
CONTINUOUS
 62
     3
100
AcDbLine
 10
55.04576630759198
 20
2.050000089529679
 30
0.0
 11
57.94577992364431
 21
2.050000089529679
 31
0.0
  0
LINE
  5
1C5
330
1F
100
AcDbEntity
  8
LAYER0007
  6
CONTINUOUS
 62
     3
100
AcDbLine
 10
57.94577992364431
 20
1.750000089529681
 30
0.0
 11
55.96639369237839
 21
1.750000089529681
 31
0.0
  0
LINE
  5
1C6
330
1F
100
AcDbEntity
  8
LAYER0007
  6
CONTINUOUS
 62
     3
100
AcDbLine
 10
55.04576630759198
 20
-11.95000008952972
 30
0.0
 11
57.94577992364431
 21
-11.95000008952972
 31
0.0
  0
LINE
  5
1C7
330
1F
100
AcDbEntity
  8
LAYER0007
  6
CONTINUOUS
 62
     3
100
AcDbLine
 10
57.94577992364431
 20
-11.65000008952972
 30
0.0
 11
55.96639369237839
 21
-11.65000008952972
 31
0.0
  0
LINE
  5
1C8
330
1F
100
AcDbEntity
  8
LAYER0007
  6
CONTINUOUS
 62
     3
100
AcDbLine
 10
55.04576630759198
 20
2.050000089529679
 30
0.0
 11
57.9457799236443
 21
2.050000089529679
 31
0.0
  0
LINE
  5
1C9
330
1F
100
AcDbEntity
  8
LAYER0007
  6
CONTINUOUS
 62
     3
100
AcDbLine
 10
57.9457799236443
 20
1.750000089529696
 30
0.0
 11
55.96639369237838
 21
1.750000089529681
 31
0.0
  0
LINE
  5
1CA
330
1F
100
AcDbEntity
  8
LAYER0007
  6
CONTINUOUS
 62
     3
100
AcDbLine
 10
55.04576630759198
 20
-11.95000008952972
 30
0.0
 11
57.9457799236443
 21
-11.95000008952972
 31
0.0
  0
LINE
  5
1CB
330
1F
100
AcDbEntity
  8
LAYER0007
  6
CONTINUOUS
 62
     3
100
AcDbLine
 10
57.9457799236443
 20
-11.65000008952972
 30
0.0
 11
55.96639369237838
 21
-11.65000008952972
 31
0.0
  0
LINE
  5
1CC
330
1F
100
AcDbEntity
  8
LAYER0012
  6
CONTINUOUS
 62
     3
100
AcDbLine
 10
54.44577281603804
 20
2.399997631119337
 30
0.0
 11
55.04576630759189
 21
2.294202590308917
 31
0.0
  0
LINE
  5
1CD
330
1F
100
AcDbEntity
  8
LAYER0012
  6
CONTINUOUS
 62
     3
100
AcDbLine
 10
55.04576630759226
 20
-12.19420259030882
 30
0.0
 11
55.04576630759226
 21
-7.949999999998919
 31
0.0
  0
ARC
  5
1CE
330
1F
100
AcDbEntity
  8
LAYER0012
  6
CONTINUOUS
 62
     3
100
AcDbCircle
 10
53.24577896996985
 20
5.349999999999969
 30
0.0
 40
0.2
100
AcDbArc
 50
0.0000000000010178
 51
90.0
  0
ARC
  5
1CF
330
1F
100
AcDbEntity
  8
LAYER0012
  6
CONTINUOUS
 62
     3
100
AcDbCircle
 10
53.24577273414824
 20
-15.24999999999993
 30
0.0
 40
0.2
100
AcDbArc
 50
270.0000000000124
 51
360.0
  0
LINE
  5
1D0
330
1F
100
AcDbEntity
  8
LAYER0012
  6
CONTINUOUS
 62
     3
100
AcDbLine
 10
53.44577273414824
 20
5.349999999999984
 30
0.0
 11
53.44577273414824
 21
-15.24999999999993
 31
0.0
  0
LINE
  5
1D1
330
1F
100
AcDbEntity
  8
LAYER0012
  6
CONTINUOUS
 62
     3
100
AcDbLine
 10
54.44576630759231
 20
3.625000000013774
 30
0.0
 11
54.44576630759231
 21
-13.52499999998615
 31
0.0
  0
ARC
  5
1D2
330
1F
100
AcDbEntity
  8
LAYER0012
  6
CONTINUOUS
 62
     3
100
AcDbCircle
 10
54.24576630759231
 20
-13.52499999998615
 30
0.0
 40
0.2
100
AcDbArc
 50
270.0000000000124
 51
360.0
  0
ARC
  5
1D3
330
1F
100
AcDbEntity
  8
LAYER0012
  6
CONTINUOUS
 62
     3
100
AcDbCircle
 10
54.24577254341342
 20
3.625000000013774
 30
0.0
 40
0.2
100
AcDbArc
 50
0.0000000000010178
 51
90.0
  0
TEXT
  5
1D4
330
1F
100
AcDbEntity
  8
0
 62
     7
100
AcDbText
 10
66.9457799236443
 20
-11.35000000000003
 30
0.0
 40
4.0
  1
13.4
 50
90.0
 41
0.8000000000000003
  7
FDASTYLE0
 72
     5
 11
66.9457799236443
 21
1.449999999999978
 31
0.0
100
AcDbText
  0
VIEWPORT
  5
4C
330
1B
100
AcDbEntity
 67
     1
  8
0
100
AcDbViewport
 10
-0.8750421645532072
 20
0.5
 30
0.0
 40
610.9249325291851
 41
213.2999999999997
 68
     1
 69
     1
1001
ACAD
1000
MVIEW
1002
{
1070
    16
1010
0.0
1020
0.0
1030
0.0
1010
0.0
1020
0.0
1030
1.0
1040
0.0
1040
213.2999999999997
1040
-0.8750421645532072
1040
0.5
1040
50.0
1040
0.0
1040
0.0
1070
     0
1070
   100
1070
     0
1070
     1
1070
     0
1070
     0
1070
     0
1070
     0
1040
0.0
1040
0.0
1040
0.0
1040
0.5
1040
0.5
1040
0.0
1040
0.0
1070
     0
1002
{
1002
}
1002
}
  0
ENDSEC
  0
SECTION
  2
OBJECTS
  0
DICTIONARY
  5
C
330
0
100
AcDbDictionary
  3
ACAD_GROUP
350
D
  3
ACAD_LAYOUT
350
1A
  3
ACAD_MLINESTYLE
350
17
  3
ACAD_PLOTSETTINGS
350
19
  3
ACDBHEADERROUNDTRIPXREC
350
1D5
  0
DICTIONARY
  5
D
102
{ACAD_REACTORS
330
C
102
}
330
C
100
AcDbDictionary
  0
DICTIONARY
  5
1A
102
{ACAD_REACTORS
330
C
102
}
330
C
100
AcDbDictionary
  0
DICTIONARY
  5
17
102
{ACAD_REACTORS
330
C
102
}
330
C
100
AcDbDictionary
  3
STANDARD
350
18
  0
DICTIONARY
  5
19
102
{ACAD_REACTORS
330
C
102
}
330
C
100
AcDbDictionary
  0
DICTIONARY
  5
1D5
102
{ACAD_REACTORS
330
C
102
}
330
C
100
AcDbDictionary
  3
CEPSNTYPE
350
1DE
  3
DIMSTYLEDATA
350
1F4
  3
FINGERPRINTGUID
350
1DF
  3
HYPERLINKBASE
350
1D8
  3
INSUNITS
350
1DD
  3
LAYOUTDICT
350
1DA
  3
LWETCUNION
350
1DC
  3
PLOTSETDICT
350
1DB
  3
PSVPSCALE
350
1E1
  3
PUCSBASE
350
1E4
  3
PUCSORGBACK
350
1EA
  3
PUCSORGBOTTOM
350
1E6
  3
PUCSORGFRONT
350
1E9
  3
PUCSORGLEFT
350
1E7
  3
PUCSORGRIGHT
350
1E8
  3
PUCSORGTOP
350
1E5
  3
PUCSORTHOREF
350
1E2
  3
PUCSORTHOVIEW
350
1E3
  3
STYLESHEET
350
1D9
  3
TSTACKALIGN
350
1D6
  3
TSTACKSIZE
350
1D7
  3
UCSBASE
350
1ED
  3
UCSORGBACK
350
1F3
  3
UCSORGBOTTOM
350
1EF
  3
UCSORGFRONT
350
1F2
  3
UCSORGLEFT
350
1F0
  3
UCSORGRIGHT
350
1F1
  3
UCSORGTOP
350
1EE
  3
UCSORTHOREF
350
1EB
  3
UCSORTHOVIEW
350
1EC
  3
VERSIONGUID
350
1E0
  0
MLINESTYLE
  5
18
102
{ACAD_REACTORS
330
17
102
}
330
17
100
AcDbMlineStyle
  2
Standard
 70
     0
  3

 62
   256
 51
90.0
 52
90.0
 71
     2
 49
0.5
 62
   256
  6
BYLAYER
 49
-0.5
 62
   256
  6
BYLAYER
  0
XRECORD
  5
1DE
102
{ACAD_REACTORS
330
1D5
102
}
330
1D5
100
AcDbXrecord
 90
        0
  0
XRECORD
  5
1F4
102
{ACAD_REACTORS
330
1D5
102
}
330
1D5
100
AcDbXrecord
1000
DSTYLE
1002
{
1070
   171
 70
     2
1070
   143
 40
25.4
1070
   274
 70
     2
1070
   141
 40
0.09
1070
   271
 70
     4
1070
    43
 40
0.38
1070
    44
 40
0.18
1070
   278
 70
    46
1070
    42
 40
0.0625
1070
   147
 40
0.09
1070
    77
 70
     3
1070
   272
 70
     4
1070
    73
 70
     1
1070
   172
 70
     0
1070
    74
 70
     1
1070
   283
 70
     1
1070
   340
340
11
1070
   140
 40
0.18
1070
   284
 70
     0
1070
    78
 70
     0
1002
}
  0
XRECORD
  5
1DF
102
{ACAD_REACTORS
330
1D5
102
}
330
1D5
100
AcDbXrecord
  1
{FAFB180C-085E-4358-8498-F883A1249E92}
  0
XRECORD
  5
1D8
102
{ACAD_REACTORS
330
1D5
102
}
330
1D5
100
AcDbXrecord
  1

  0
XRECORD
  5
1DD
102
{ACAD_REACTORS
330
1D5
102
}
330
1D5
100
AcDbXrecord
 90
        4
  0
XRECORD
  5
1DA
102
{ACAD_REACTORS
330
1D5
102
}
330
1D5
100
AcDbXrecord
340
1A
  0
XRECORD
  5
1DC
102
{ACAD_REACTORS
330
1D5
102
}
330
1D5
100
AcDbXrecord
 90
    10781
  0
XRECORD
  5
1DB
102
{ACAD_REACTORS
330
1D5
102
}
330
1D5
100
AcDbXrecord
340
19
  0
XRECORD
  5
1E1
102
{ACAD_REACTORS
330
1D5
102
}
330
1D5
100
AcDbXrecord
 40
0.0
  0
XRECORD
  5
1E4
102
{ACAD_REACTORS
330
1D5
102
}
330
1D5
100
AcDbXrecord
340
0
  0
XRECORD
  5
1EA
102
{ACAD_REACTORS
330
1D5
102
}
330
1D5
100
AcDbXrecord
 10
0.0
 20
0.0
 30
0.0
  0
XRECORD
  5
1E6
102
{ACAD_REACTORS
330
1D5
102
}
330
1D5
100
AcDbXrecord
 10
0.0
 20
0.0
 30
0.0
  0
XRECORD
  5
1E9
102
{ACAD_REACTORS
330
1D5
102
}
330
1D5
100
AcDbXrecord
 10
0.0
 20
0.0
 30
0.0
  0
XRECORD
  5
1E7
102
{ACAD_REACTORS
330
1D5
102
}
330
1D5
100
AcDbXrecord
 10
0.0
 20
0.0
 30
0.0
  0
XRECORD
  5
1E8
102
{ACAD_REACTORS
330
1D5
102
}
330
1D5
100
AcDbXrecord
 10
0.0
 20
0.0
 30
0.0
  0
XRECORD
  5
1E5
102
{ACAD_REACTORS
330
1D5
102
}
330
1D5
100
AcDbXrecord
 10
0.0
 20
0.0
 30
0.0
  0
XRECORD
  5
1E2
102
{ACAD_REACTORS
330
1D5
102
}
330
1D5
100
AcDbXrecord
340
0
  0
XRECORD
  5
1E3
102
{ACAD_REACTORS
330
1D5
102
}
330
1D5
100
AcDbXrecord
 70
     0
  0
XRECORD
  5
1D9
102
{ACAD_REACTORS
330
1D5
102
}
330
1D5
100
AcDbXrecord
  1

  0
XRECORD
  5
1D6
102
{ACAD_REACTORS
330
1D5
102
}
330
1D5
100
AcDbXrecord
 90
        1
  0
XRECORD
  5
1D7
102
{ACAD_REACTORS
330
1D5
102
}
330
1D5
100
AcDbXrecord
 90
       70
  0
XRECORD
  5
1ED
102
{ACAD_REACTORS
330
1D5
102
}
330
1D5
100
AcDbXrecord
340
0
  0
XRECORD
  5
1F3
102
{ACAD_REACTORS
330
1D5
102
}
330
1D5
100
AcDbXrecord
 10
0.0
 20
0.0
 30
0.0
  0
XRECORD
  5
1EF
102
{ACAD_REACTORS
330
1D5
102
}
330
1D5
100
AcDbXrecord
 10
0.0
 20
0.0
 30
0.0
  0
XRECORD
  5
1F2
102
{ACAD_REACTORS
330
1D5
102
}
330
1D5
100
AcDbXrecord
 10
0.0
 20
0.0
 30
0.0
  0
XRECORD
  5
1F0
102
{ACAD_REACTORS
330
1D5
102
}
330
1D5
100
AcDbXrecord
 10
0.0
 20
0.0
 30
0.0
  0
XRECORD
  5
1F1
102
{ACAD_REACTORS
330
1D5
102
}
330
1D5
100
AcDbXrecord
 10
0.0
 20
0.0
 30
0.0
  0
XRECORD
  5
1EE
102
{ACAD_REACTORS
330
1D5
102
}
330
1D5
100
AcDbXrecord
 10
0.0
 20
0.0
 30
0.0
  0
XRECORD
  5
1EB
102
{ACAD_REACTORS
330
1D5
102
}
330
1D5
100
AcDbXrecord
340
0
  0
XRECORD
  5
1EC
102
{ACAD_REACTORS
330
1D5
102
}
330
1D5
100
AcDbXrecord
 70
     0
  0
XRECORD
  5
1E0
102
{ACAD_REACTORS
330
1D5
102
}
330
1D5
100
AcDbXrecord
  1
{FAEB1C32-E019-11D5-929B-00C0DF256EC4}
  0
ENDSEC
  0
EOF
